Sound will begin in 5 seconds

Chicken Pickin Licks 1 -4 001

01234567891011121314151617181920212223
E
B
G
D
A
E
B
0 1 2 3 4 5 6 7 8 9 10 11 12 13 14 15 16 17 18 19 20 21 22 23
(/) Slide Up  (\) Slide Down  (h) Hammer On  (p) Pull Off  (b) Bend (r) Release (v) Vibrato

Stave 1:

E|---------------------------10--
B|-------8p0-----6p0--10b12------
G|-------------------------------
D|--7/9-------7------------------
A|-------------------------------
E|-------------------------------

Stave 2:

E|--8p7----------------
B|-------8----------8--
G|----------9--7h9-----
D|---------------------
A|---------------------
E|---------------------

Stave 3:

E|---------------------------------------------
B|--8\6-----6\5-----5-----3-------3------------
G|-------0-------0-----0-----4h5-----5p4p0-----
D|------------------------------------------0--
A|---------------------------------------------
E|---------------------------------------------

Stave 4:

E|-------------------------
B|-------------------------
G|-------0-------0---------
D|--4/5-----4/5-----3p2p0--
A|-------------------------
E|-------------------------

http://www.guitartabcreator.com
Guitar Tab Creator is intended to store guitar tab created through the tool. It currently does not support in-line text editing. Any text you place in here will be lost. If you need to comment on your tab, please use the "Tab Notes" section located below.