Skip to main content

bad love outro

0 1 2 3 4 5 6 7 8 9 10 11 12 13 14 15 16 17 18 19 20 21 22 23
E
B
G
D
A
E
0 1 2 3 4 5 6 7 8 9 10 11 12 13 14 15 16 17 18 19 20 21 22 23
(/) Slide Up  (\) Slide Down  (h) Hammer On  (p) Pull Off  (b) Bend (r) Release (v) Vibrato

Stave 1:

E|------------------------------------------------------------------------|-----------------------------------------------------15--17--15h17p15------15------------|--
B|---------15------15--17b18--17--15------15--17--15--17--15--15--17b18v--|--b18--15--17--15------15---------15---------15--18--------------------18------18b20-----|--
G|--17b19------17---------------------17----------------------------------|-------------------17------17b19------17b18----------------------------------------------|--
D|------------------------------------------------------------------------|-----------------------------------------------------------------------------------------|--
A|------------------------------------------------------------------------|-----------------------------------------------------------------------------------------|--
E|------------------------------------------------------------------------|-----------------------------------------------------------------------------------------|--

Stave 2:

E|------------------------------------------------20--------------|--15--17--15----------15----------------------------------------------------------------------------------|--
B|--15--18--15------15---------15--18--20--20b22------20b22v--18--|--------------18--15------15--18--17--15------------------------------------------------------------------|--
G|--------------17------17b19-------------------------------------|------------------------------------------17--14----------------------------------------------12------10--|--
D|----------------------------------------------------------------|--------------------------------------------------17--15---------17-----------10------10--12------12------|--
A|----------------------------------------------------------------|----------------------------------------------------------17---------17\5/12------12----------------------|--
E|----------------------------------------------------------------|----------------------------------------------------------------------------------------------------------|--

Stave 3:

E|----------------10----------------10------10--12b13r12--10--12v--10------------------------|-----------------------------------------------------------------|--
B|------------10------10-----13b15------13-----------------------------13--10h13p10------10--|---------10------------------------------------------------------|--
G|-----12b14-------------------------------------------------------------------------12------|--12b14------12--10--9--9------9---------------------------------|--
D|-------------------------------------------------------------------------------------------|---------------------------12-----12--10--12-----------------10--|--
A|-------------------------------------------------------------------------------------------|----------------------------------------------12--10--10/12------|--
E|-------------------------------------------------------------------------------------------|-----------------------------------------------------------------|--

Stave 4:

E|-------------------------13--13\12v--12--13--13/15--13--15--15/17--15--|--15--17--17b20r17--15--17--17--15--17--15------15---------------------------------
B|---------13------13--15------------------------------------------------|--------------------------------------------18------18--15--18--15------15---------
G|--12/14------14--------------------------------------------------------|--------------------------------------------------------------------17------17b19--
D|-----------------------------------------------------------------------|-----------------------------------------------------------------------------------
A|-----------------------------------------------------------------------|-----------------------------------------------------------------------------------
E|-----------------------------------------------------------------------|-----------------------------------------------------------------------------------

Stave 5:

E|---------------------------------------------------20--------------|------17---------------------------------------------------------------------------------------------------|--
B|-----15--18--15------15---------15--18--20--20b22------20b22v--18--|--20------20--18------20------18--17-----------------------------------------------------------------------|--
G|-----------------17------17b19-------------------------------------|------------------19------19----------19--17-----------------------------------------------12------10------|--
D|-------------------------------------------------------------------|----------------------------------------------19--17--15------17-----------10------10--12------12------12--|--
A|-------------------------------------------------------------------|----------------------------------------------------------17------17\5/12------12--------------------------|--
E|-------------------------------------------------------------------|-----------------------------------------------------------------------------------------------------------|--

							https://www.guitartabcreator.com
Chords

Instruments
{"strings":[[[".",".",".",".",".",".",".",".",".",".",".",".",".",".",".",".",".","_",".",".",".",".","|",".",".",".",".",".",".",".",".",".",".",".",".",".",".",".",".",15,17,15,"h",17,"p",15,".",15,".","_","_","_","|"],[".",".",".",15,".",15,17,"b",18,17,15,".",15,17,15,17,15,15,17,"b",18,"v","|","b",18,15,17,15,".",15,".",".",".",15,".",".",".",15,18,".",".",".",".",".",".",".",18,".",18,"b",20,"_","|"],[17,"b",19,".",17,".",".",".",".",".",".",17,".",".",".",".",".","_",".",".",".",".","|",".",".",".",".",".",17,".",17,"b",19,".",17,"b",18,".",".",".",".",".",".",".",".",".",".",".",".","_","_","_","|"],[".",".",".",".",".",".",".",".",".",".",".",".",".",".",".",".",".","_",".",".",".",".","|",".",".",".",".",".",".",".",".",".",".",".",".",".",".",".",".",".",".",".",".",".",".",".",".",".",".","_","_","_","|"],[".",".",".",".",".",".",".",".",".",".",".",".",".",".",".",".",".","_",".",".",".",".","|",".",".",".",".",".",".",".",".",".",".",".",".",".",".",".",".",".",".",".",".",".",".",".",".",".",".","_","_","_","|"],[".",".",".",".",".",".",".",".",".",".",".",".",".",".",".",".",".","_",".",".",".",".","|",".",".",".",".",".",".",".",".",".",".",".",".",".",".",".",".",".",".",".",".",".",".",".",".",".",".","_","_","_","|"]],[[".",".",".",".",".",".",".",".",".",".",".",".",".",".",20,".",".",".",".",".","|",15,17,15,".",".",15,".",".",".",".",".",".",".",".",".","_",".",".",".",".",".",".",".",".",".",".",".",".",".","|"],[15,18,15,".",15,".",".",".",15,18,20,20,"b",22,".",20,"b",22,"v",18,"|",".",".",".",18,15,".",15,18,17,15,".",".",".",".",".","_",".",".",".",".",".",".",".",".",".",".",".",".",".","|"],[".",".",".",17,".",17,"b",19,".",".",".",".",".",".",".",".",".",".",".",".","|",".",".",".",".",".",".",".",".",".",".",17,14,".",".",".","_",".",".",".",".",".",".",".",".",".",".",12,".",10,"|"],[".",".",".",".",".",".",".",".",".",".",".",".",".",".",".",".",".",".",".",".","|",".",".",".",".",".",".",".",".",".",".",".",".",17,15,".","_",17,".",".",".",".",".",10,".",10,12,".",12,".","|"],[".",".",".",".",".",".",".",".",".",".",".",".",".",".",".",".",".",".",".",".","|",".",".",".",".",".",".",".",".",".",".",".",".",".",".",17,"_",".",17,"\\",5,"/",12,".",12,".",".",".",".",".","|"],[".",".",".",".",".",".",".",".",".",".",".",".",".",".",".",".",".",".",".",".","|",".",".",".",".",".",".",".",".",".",".",".",".",".",".",".","_",".",".",".",".",".",".",".",".",".",".",".",".",".","|"]],[["_",".",".",".",".",10,".","_",".",".",".",10,".",10,12,"b",13,"r",12,10,12,"v",10,".",".",".",".",".",".",".",".","|",".",".",".",".",".",".",".",".",".",".",".",".",".",".",".",".",".",".",".","|"],["_",".",".",".",10,".",10,"_",13,"b",15,"_",13,"_","_","_","_","_","_","_","_","_","_",13,10,"h",13,"p",10,".",10,"|",".",".",".",10,".",".",".",".",".",".",".",".",".",".",".",".",".",".",".","|"],["_",12,"b",14,".",".",".","_",".",".",".","_",".","_","_","_","_","_","_","_","_","_","_",".",".",".",".",".",".",12,".","|",12,"b",14,".",12,10,9,9,".",9,".",".",".",".",".",".",".",".",".","|"],["_",".",".",".",".",".",".","_",".",".",".","_",".","_","_","_","_","_","_","_","_","_","_",".",".",".",".",".",".",".",".","|",".",".",".",".",".",".",".",".",12,".",12,10,12,".",".",".",".",".",10,"|"],["_",".",".",".",".",".",".","_",".",".",".","_",".","_","_","_","_","_","_","_","_","_","_",".",".",".",".",".",".",".",".","|",".",".",".",".",".",".",".",".",".",".",".",".",".",12,10,10,"/",12,".","|"],["_",".",".",".",".",".",".","_",".",".",".","_",".","_","_","_","_","_","_","_","_","_","_",".",".",".",".",".",".",".",".","|",".",".",".",".",".",".",".",".",".",".",".",".",".",".",".",".",".",".",".","|"]],[[".",".",".",".",".",".",".",13,13,"\\",12,"v",12,13,13,"/",15,13,15,15,"/",17,15,"|",15,17,17,"b",20,"r",17,15,17,17,15,17,15,".",15,".",".",".",".",".",".",".",".","."],[".",".",".",13,".",13,15,".",".",".",".",".",".",".",".",".",".",".",".",".",".",".",".","|",".",".",".",".",".",".",".",".",".",".",".",".",".",18,".",18,15,18,15,".",15,".",".","."],[12,"/",14,".",14,".",".",".",".",".",".",".",".",".",".",".",".",".",".",".",".",".",".","|",".",".",".",".",".",".",".",".",".",".",".",".",".",".",".",".",".",".",".",17,".",17,"b",19],[".",".",".",".",".",".",".",".",".",".",".",".",".",".",".",".",".",".",".",".",".",".",".","|",".",".",".",".",".",".",".",".",".",".",".",".",".",".",".",".",".",".",".",".",".",".",".","."],[".",".",".",".",".",".",".",".",".",".",".",".",".",".",".",".",".",".",".",".",".",".",".","|",".",".",".",".",".",".",".",".",".",".",".",".",".",".",".",".",".",".",".",".",".",".",".","."],[".",".",".",".",".",".",".",".",".",".",".",".",".",".",".",".",".",".",".",".",".",".",".","|",".",".",".",".",".",".",".",".",".",".",".",".",".",".",".",".",".",".",".",".",".",".",".","."]],[[".",".",".",".",".",".",".",".",".",".",".",".",".",".",".",20,".",".",".",".",".","|",".",17,".",".",".",".",".",".",".",".",".",".",".",".",".",".",".",".",".",".",".",".",".",".",".",".",".",".",".","|"],[".",15,18,15,".",15,".",".",".",15,18,20,20,"b",22,".",20,"b",22,"v",18,"|",20,".",20,18,".",20,".",18,17,".",".",".",".",".",".",".",".",".",".",".",".",".",".",".",".",".",".",".",".","|"],[".",".",".",".",17,".",17,"b",19,".",".",".",".",".",".",".",".",".",".",".",".","|",".",".",".",".",19,".",19,".",".",19,17,".",".",".",".",".",".",".",".",".",".",".",".",".",".",12,".",10,".","|"],[".",".",".",".",".",".",".",".",".",".",".",".",".",".",".",".",".",".",".",".",".","|",".",".",".",".",".",".",".",".",".",".",".",19,17,15,".",17,".",".",".",".",".",10,".",10,12,".",12,".",12,"|"],[".",".",".",".",".",".",".",".",".",".",".",".",".",".",".",".",".",".",".",".",".","|",".",".",".",".",".",".",".",".",".",".",".",".",".",".",17,".",17,"\\",5,"/",12,".",12,".",".",".",".",".",".","|"],[".",".",".",".",".",".",".",".",".",".",".",".",".",".",".",".",".",".",".",".",".","|",".",".",".",".",".",".",".",".",".",".",".",".",".",".",".",".",".",".",".",".",".",".",".",".",".",".",".",".",".","|"]]],"numberofstrings":6,"notes":["E","B","G","D","A","E","B"],"capo":0,"stringnotes":["E4","B3","G3","D3","A2","E2"],"comments":["Stave 1:","Stave 2:","Stave 3:","Stave 4:","Stave 5:"],"timing":[["Q",null,"Q","Q","Q","Q","Q",null,"Q","Q","Q","Q","Q","Q","Q","Q","Q","Q",null,"Q",null,null,null,"Q","Q","Q","Q","Q","Q","Q",null,"Q","Q","Q",null,"Q","Q","Q","Q","Q","Q",null,"Q",null,"Q","Q","Q","Q","Q","Q","Q","Q","Q"],["Q","Q","Q","Q","Q","Q",null,"Q","Q","Q","Q","Q",null,"Q","Q","Q",null,"Q",null,"Q",null,"Q","Q","Q","Q","Q","Q","Q","Q","Q","Q","Q","Q","Q","Q","Q","Q","Q","Q",null,"Q",null,"Q","Q","Q","Q","Q","Q","Q","Q"],["Q","Q",null,"Q","Q","Q","Q","Q","Q",null,"Q","Q","Q","Q","Q",null,"Q",null,"Q","Q","Q",null,"Q","Q","Q",null,"Q",null,"Q","Q","Q",null,"Q",null,"Q","Q","Q","Q","Q","Q","Q","Q","Q","Q","Q","Q","Q","Q",null,"Q","Q",null,"Q"],["Q",null,"Q","Q","Q","Q","Q","Q","Q",null,"Q",null,"Q","Q","Q",null,"Q","Q","Q","Q",null,"Q","Q",null,"Q","Q","Q",null,"Q",null,"Q","Q","Q","Q","Q","Q","Q","Q","Q","Q","Q","Q","Q","Q","Q","Q",null,"Q"],[null,"Q","Q","Q","Q","Q","Q",null,"Q","Q","Q","Q","Q",null,"Q","Q","Q",null,"Q",null,"Q",null,"Q","Q","Q","Q","Q","Q","Q","Q","Q","Q","Q","Q","Q","Q","Q","Q","Q",null,"Q",null,"Q","Q","Q","Q","Q","Q","Q","Q","Q"]],"timingvisible":false,"tabcounter":52,"stave":2,"totalstaves":5,"instrument":"6guitar","selectedtuning":"6_standard","version":"13"}
Submitted by Dan Sutcliffe on