Sound will begin in 5 seconds

Viva el pasodoble

01234567891011121314151617181920212223
E
B
G
D
A
E
B
0 1 2 3 4 5 6 7 8 9 10 11 12 13 14 15 16 17 18 19 20 21 22 23
Song Science #1: How Pros Use 6 Chords to Write Hit Songs
(/) Slide Up  (\) Slide Down  (h) Hammer On  (p) Pull Off  (b) Bend (r) Release (v) Vibrato

Stave 1:

G|-----------------------------------------------------------
D|--5--0--5--0--3-----3--3-----------------------------2-----
A|-----------------3--------3-----3--4--5--0--5--5--0-----0--
E|-----------------------------3-----------------------------
B|-----------------------------------------------------------

Stave 2:

G|--------------------------------------------------------------------------
D|--0--1--2-----------------------0--1--2-----2--0--------------------------
A|-----------3--0--------------0-----------0--------3--2--0--0--0--2--------
E|-----------------3--2--2--0-----------------------------------------0--5--
B|--------------------------------------------------------------------------

Stave 3:

G|--------------------------------------------------------------------------------------------------------------------------------
D|-----------------------------------------------------------0--5--0--------------------------2-----2-----3-----3-----2-----2-----
A|-----------------------------------------------3--------------------3-----3-----2-----2--------2-----2-----3-----3-----2-----2--
E|--0--5--0--5--0--5--0--5--0--5--0--5--0--5--1-----1--1--3--------------3-----3-----2-----2--------------------------------------
B|--------------------------------------------------------------------------------------------------------------------------------

Stave 4:

G|--2--2--1-----0--0-----------------------------2--2--1-----0--0-----------------------------
D|-----------2--------4-----3--3--2-----2-----------------2--------4-----3--3--2-----2--------
A|-----------------------3-----------2-----2--0-----------------------3-----------2-----2-----
E|-----------------------------------------------------------------------------------------5--
B|--------------------------------------------------------------------------------------------

Stave 5:

G|--------------------------------------------------------------------------------------------------------------------------------
D|-----------------------------------------------------------0--5--0--------------------------2-----2-----3-----3-----2-----2-----
A|-----------------------------------------------3--------------------3-----3-----2-----2--------2-----2-----3-----3-----2-----2--
E|--0--5--0--5--0--5--0--5--0--5--0--5--0--5--1-----1--1--3--------------3-----3-----2-----2--------------------------------------
B|--------------------------------------------------------------------------------------------------------------------------------

Stave 6:

G|-----------------------------------------
D|-----2--------------2--------------2-----
A|--0-----0--------0-----0--------0-----0--
E|-----------0--0-----------0--0-----------
B|-----------------------------------------

http://www.guitartabcreator.com
Guitar Tab Creator is intended to store guitar tab created through the tool. It currently does not support in-line text editing. Any text you place in here will be lost. If you need to comment on your tab, please use the "Tab Notes" section located below.