D

01234567891011121314151617181920212223
E
B
G
D
A
E
B
0 1 2 3 4 5 6 7 8 9 10 11 12 13 14 15 16 17 18 19 20 21 22 23
(/) Slide Up  (\) Slide Down  (h) Hammer On  (p) Pull Off  (b) Bend (r) Release (v) Vibrato

(W|WW) Whole  (H|HH) Half  (Q|QQ) Quarter  (E|EE) 8th (S|SS) 16th  (T|TT) 32nd (X|XX) 64th

Stave 1:
t: W W W W W W W W W W W W W W W W W W W W W W W W W W W W W W W 
G|---------------------------------------------------------------
D|---------------------------------------------------------------
A|-------5-----0-----------5---------------5---0-----------5-----
E|-2---5-----------5-2---5-----5-----0---5-------5---2---5-----5-

Stave 2:
t: W W W W W W W W W W W W W W W W W W W W W W W W W W W W W W W 
G|---------------------------------------------------------------
D|---------------------------------------------------------------
A|-------5-----0-----------5---------------5---0-----------5-----
E|-2---5-----------5-2---5-----5-----0---5-------5---2---5-----5-

Stave 3:
t: W W W W W W W W W W W W W W W W W W W W W W W W W W W W W W W 
G|---------------------------------------------------------------
D|---------------------------------------------------------------
A|-------5-----0-----------5---------------5---1-----------5-----
E|-2---5-----------5-2---5-----5-----1---5-------5---2---5-----5-

							http://www.guitartabcreator.com
Chords

genre
Instruments
{"strings":[[[".","_",".",".","_","_",".","_",".",".","_",".",".","_",".","_","_",".","_",".",".","_",".",".","_",".","_",".",".","_","."],[".","_",".",".","_","_",".","_",".",".","_",".",".","_",".","_","_",".","_",".",".","_",".",".","_",".","_",".",".","_","."],[".","_",".",5,"_","_",0,"_",".",".","_",".",5,"_",".","_","_",".","_",".",5,"_",0,".","_",".","_",".",5,"_","."],[2,"_",5,".","_","_",".","_",5,2,"_",5,".","_",5,"_","_",0,"_",5,".","_",".",5,"_",2,"_",5,".","_",5]],[[".","_",".",".","_","_",".","_",".",".","_",".",".","_",".","_","_",".","_",".",".","_",".",".","_",".","_",".",".","_","."],[".","_",".",".","_","_",".","_",".",".","_",".",".","_",".","_","_",".","_",".",".","_",".",".","_",".","_",".",".","_","."],[".","_",".",5,"_","_",0,"_",".",".","_",".",5,"_",".","_","_",".","_",".",5,"_",0,".","_",".","_",".",5,"_","."],[2,"_",5,".","_","_",".","_",5,2,"_",5,".","_",5,"_","_",0,"_",5,".","_",".",5,"_",2,"_",5,".","_",5]],[[".","_",".",".","_","_",".","_",".",".","_",".",".","_",".","_","_",".","_",".",".","_",".",".","_",".","_",".",".","_","."],[".","_",".",".","_","_",".","_",".",".","_",".",".","_",".","_","_",".","_",".",".","_",".",".","_",".","_",".",".","_","."],[".","_",".",5,"_","_",0,"_",".",".","_",".",5,"_",".","_","_",".","_",".",5,"_",1,".","_",".","_",".",5,"_","."],[2,"_",5,".","_","_",".","_",5,2,"_",5,".","_",5,"_","_",1,"_",5,".","_",".",5,"_",2,"_",5,".","_",5]]],"numberofstrings":4,"notes":["G","D","A","E"],"capo":0,"stringnotes":["G2","D2","A1","E1"],"comments":["Stave 1:","Stave 2:","Stave 3:"],"timing":[["W","W","W","W","W","W","W","W","W","W","W","W","W","W","W","W","W","W","W","W","W","W","W","W","W","W","W","W","W","W","W"],["W","W","W","W","W","W","W","W","W","W","W","W","W","W","W","W","W","W","W","W","W","W","W","W","W","W","W","W","W","W","W"],["W","W","W","W","W","W","W","W","W","W","W","W","W","W","W","W","W","W","W","W","W","W","W","W","W","W","W","W","W","W","W"]],"timingvisible":true,"tabcounter":31,"stave":2,"totalstaves":3,"instrument":"4bass","selectedtuning":"4bass","version":"13"}

Member for

1 month 3 weeks
About Me
Noob
Submitted by Dallas on Wed, 2021-10-13 22:54