Sound will begin in 5 seconds

Day That Never Comes( Rhythm Solo 1st verse)

Chords
01234567891011121314151617181920212223
E
B
G
D
A
E
B
0 1 2 3 4 5 6 7 8 9 10 11 12 13 14 15 16 17 18 19 20 21 22 23
Song Science #1: How Pros Use 6 Chords to Write Hit Songs
(/) Slide Up  (\) Slide Down  (h) Hammer On  (p) Pull Off  (b) Bend (r) Release (v) Vibrato

Stave 1:

E|--------------------------------------------------------------------------------------
B|--------------------------------------------------------------------------------------
G|--9-----9--9--9--7-----7-----7--7--7--------------------------------------------------
D|--------------------9-----------------9--7-----9-----9--9--9--7--5--7--5-----5--------
A|--------------------------------------------------------------------------7-----7--5--
E|--------------------------------------------------------------------------------------

Stave 2:

E|----------------------------------------------------------------------------------------
B|----------------------------------------------------------------------------------------
G|--9-----9--9--9--7--------7-----7--7--7--------------------------------8b9-----7--5--7--
D|--------------------9--------------------9--7-----9-----9--9--9--7--5-------------------
A|----------------------------------------------------------------------------------------
E|----------------------------------------------------------------------------------------

Stave 3:

E|-----------------------------------------------------------------------------------------
B|--8-----8--8--8--7--------7-----7--7--7--------------------------------------------------
G|--------------------9--------------------9--7-----9-----9--9--9--7-----7-----------------
D|--------------------------------------------------------------------9-----9--7--9--7--5--
A|-----------------------------------------------------------------------------------------
E|-----------------------------------------------------------------------------------------

Stave 4:

E|--7-----7--7--7--5--------5-----5--5--5-----------------------------------------------------
B|--------------------8--------------------8--7-----8-----8--8--8--7--5-----------------------
G|--------------------------------------------------------------------------9h11p7-----7h9p5--
D|--------------------------------------------------------------------------------------------
A|--------------------------------------------------------------------------------------------
E|--------------------------------------------------------------------------------------------

Stave 5:

E|----------------------------------------------------------------------------------
B|-------------------------0--0--5--5--8--8--5--0-----------------------------------
G|--5h7p4-----4h5p2-----------------------------------5-----------------4-----------
D|----------------------------------------------------5--------2--------4--------2--
A|----------------------------------------------------3--------2--------2--------2--
E|-------------------------------------------------------------0-----------------0--

http://www.guitartabcreator.com
Guitar Tab Creator is intended to store guitar tab created through the tool. It currently does not support in-line text editing. Any text you place in here will be lost. If you need to comment on your tab, please use the "Tab Notes" section located below.