Sound will begin in 5 seconds

ass2

01234567891011121314151617181920212223
E
B
G
D
A
E
B
0 1 2 3 4 5 6 7 8 9 10 11 12 13 14 15 16 17 18 19 20 21 22 23
Song Science #1: How Pros Use 6 Chords to Write Hit Songs
(/) Slide Up  (\) Slide Down  (h) Hammer On  (p) Pull Off  (b) Bend (r) Release (v) Vibrato

Stave 1:

E|-6-4---6-4----------------------------------18-16----18-16-------------------
B|-----6-----6-4-6---4-6-4-6-4-6-4------------------18-------18-16-18-18b21r18-
G|-----------------6---------------6-6b8r6-------------------------------------
D|-----------------------------------------------------------------------------
A|-----------------------------------------------------------------------------
E|-----------------------------------------------------------------------------

Stave 2:

E|-------------------------------------------------
B|----------16-18-18-18-18----------16-18-18-18-16-
G|-18-18-18----------------18-18-18----------------
D|-------------------------------------------------
A|-------------------------------------------------
E|-------------------------------------------------

Stave 3:

E|-18-18-18-18-18-18-20-20-20-18----18-18-18-18-18-18-20-20-20-21-21----18-18-18-18-18-18-20-20-20-18-20b21r20-18-
B|----------------------------------------------------------------------------------------------------------------
G|----------------------------------------------------------------------------------------------------------------
D|----------------------------------------------------------------------------------------------------------------
A|----------------------------------------------------------------------------------------------------------------
E|----------------------------------------------------------------------------------------------------------------

Stave 4:

E|---------------------------------------------------------------------------------------------------------------------
B|-18-------18\21-18-------------18-------18\21-18-------------18-------------14-21-16b18r16-------14-21-16b18r16-14---
G|----20-18----------20-20b22r20----20-18----------20-20b22r20----20-18-15-17----------------15-17---------------------
D|---------------------------------------------------------------------------------------------------------------------
A|---------------------------------------------------------------------------------------------------------------------
E|---------------------------------------------------------------------------------------------------------------------

http://www.guitartabcreator.com
Guitar Tab Creator is intended to store guitar tab created through the tool. It currently does not support in-line text editing. Any text you place in here will be lost. If you need to comment on your tab, please use the "Tab Notes" section located below.