Sound will begin in 5 seconds

Hangoverture

Chords
01234567891011121314151617181920212223
E
B
G
D
A
E
B
0 1 2 3 4 5 6 7 8 9 10 11 12 13 14 15 16 17 18 19 20 21 22 23
Song Science #1: How Pros Use 6 Chords to Write Hit Songs
(/) Slide Up  (\) Slide Down  (h) Hammer On  (p) Pull Off  (b) Bend (r) Release (v) Vibrato

Capo Fret 2

Stave 1:

Eb|--0--0--0--------------------------------1h0--------------1--0--------------
Bb|--0--0--0-----3--3--3--------------------1-0--3--------3--1--0--3--------3--
Gb|--1--1--1-----2--2--2-----2--2--2--------0-0--2--2--5--2--0--0--2--2--5--2--
Db|--2--2--2-----0--0--0-----2--2--2-------------0--2--5--0--------0--2--5--0--
Ab|--2--2--2-----------------0--0--0----------------0--0--------------0--0-----
Eb|--0--0--0-------------------------------------------------------------------

Stave 2:

Eb|------------------------
Bb|-----------0h1p0--------
Gb|--2--2--2---------2--0--
Db|--2--2--2---------------
Ab|--0--0--0---------------
Eb|------------------------

Stave 3:

Eb|--3--0--0--3-------------|------------------------------
Bb|--0--1--3-----3h5--------|------------------------------
Gb|--0--0--0----------3-----|--3b4-----3b4-----------------
Db|----------------------5--|-------5-------5--------------
Ab|-------------------------|------------------3--4--------
Eb|-------------------------|------------------------3--0--

Stave 4:

Eb|----------------
Bb|-----3--3------\
Gb|-----3--2--2--2-
Db|--2--4--0--2--2-
Ab|--2--2-----0--0-
Eb|--0-------------

http://www.guitartabcreator.com
Guitar Tab Creator is intended to store guitar tab created through the tool. It currently does not support in-line text editing. Any text you place in here will be lost. If you need to comment on your tab, please use the "Tab Notes" section located below.