benedomizene

Chords

01234567891011121314151617181920212223
E
B
G
D
A
E
B
0 1 2 3 4 5 6 7 8 9 10 11 12 13 14 15 16 17 18 19 20 21 22 23
(/) Slide Up  (\) Slide Down  (h) Hammer On  (p) Pull Off  (b) Bend (r) Release (v) Vibrato

Capo Fret 2

Stave 1:

E|-----------0-----------------0-----------------3--------3--------2--3--3--2--0-----------0-----------------0-----------------9--------9-----------------------
B|--------1-----1-----------1-----1-----------0-----0--------0-----3--3--3--3--1--------1-----1-----------1-----1-----------0-----0--------0-----0--1--1--0-----
G|-----2-----------2-----0-----------0-----0-----------0--------0--2--2--2--2--2-----2-----------2-----0-----------0-----0-----------0--------0--2--2--2--2-----
D|-----------------------------------------------------------------------------2-----------------------------------------------------------------0--0--0--0-----
A|--0-----------------3--------------------------------------------------------0--0-----------------3-----------------------------------------------------------
E|--------------------------------------0-----------------------------------------------------------------------------0-----------------------------------------

Stave 2:

E|--------------------------------------
B|-----------------3--3--3--1--1--1--0--
G|--2--2--2--4--4--2--2--2--2--2--2--0--
D|--2--2--2--2--2--0--0--0--0--0--0--2--
A|--0--0--0--0--0--------------------0--
E|--------------------------------------

							http://www.guitartabcreator.com
Instruments
{"strings":[[[".",".",".",0,".",".",".",".",".",0,".",".",".",".",".",3,".",".",3,".",".",2,3,3,2,0,".",".",".",0,".",".",".",".",".",0,".",".",".",".",".",9,".",".",9,".",".",".",".",".",".","."],[".",".",1,".",1,".",".",".",1,".",1,".",".",".",0,".",0,".",".",0,".",3,3,3,3,1,".",".",1,".",1,".",".",".",1,".",1,".",".",".",0,".",0,".",".",0,".",0,1,1,0,"."],[".",2,".",".",".",2,".",0,".",".",".",0,".",0,".",".",".",0,".",".",0,2,2,2,2,2,".",2,".",".",".",2,".",0,".",".",".",0,".",0,".",".",".",0,".",".",0,2,2,2,2,"."],[".",".",".",".",".",".",".",".",".",".",".",".",".",".",".",".",".",".",".",".",".",".",".",".",".",2,".",".",".",".",".",".",".",".",".",".",".",".",".",".",".",".",".",".",".",".",".",0,0,0,0,"."],[0,".",".",".",".",".",3,".",".",".",".",".",".",".",".",".",".",".",".",".",".",".",".",".",".",0,0,".",".",".",".",".",3,".",".",".",".",".",".",".",".",".",".",".",".",".",".",".",".",".",".","."],[".",".",".",".",".",".",".",".",".",".",".",".",0,".",".",".",".",".",".",".",".",".",".",".",".",".",".",".",".",".",".",".",".",".",".",".",".",".",0,".",".",".",".",".",".",".",".",".",".",".",".","."]],[[".",".",".",".",".",".",".",".",".",".",".","."],[".",".",".",".",".",3,3,3,1,1,1,0],[2,2,2,4,4,2,2,2,2,2,2,0],[2,2,2,2,2,0,0,0,0,0,0,2],[0,0,0,0,0,".",".",".",".",".",".",0],[".",".",".",".",".",".",".",".",".",".",".","."]]],"numberofstrings":6,"notes":["E","B","G","D","A","E","B"],"capo":"2","stringnotes":["E4","B3","G3","D3","A2","E2"],"comments":["Stave 1:","Stave 2:"],"timing":[[null,null,null,null,null,null,null,null,null,null,null,null,null,null,null,null,null,null,null,null,null,null,null,null,null,null,null,null,null,null,null,null,null,null,null,null,null,null,null,null,null,null,null,null,null,null,null,null,null,null,null],[null,null,null,null,null,"W","W","W","W","W","W","W"]],"timingvisible":false,"tabcounter":11,"stave":1,"totalstaves":2,"instrument":"6guitar","selectedtuning":"6_standard","version":"13"}

Member for

1 week 6 days
Submitted by D3CISION on Thu, 2020-11-19 14:25