Sound will begin in 5 seconds

Wicked Stone Outro Solo

Chords
01234567891011121314151617181920212223
E
B
G
D
A
E
B
0 1 2 3 4 5 6 7 8 9 10 11 12 13 14 15 16 17 18 19 20 21 22 23
Song Science #1: How Pros Use 6 Chords to Write Hit Songs
(/) Slide Up  (\) Slide Down  (h) Hammer On  (p) Pull Off  (b) Bend (r) Release (v) Vibrato

Stave 1:

E|-----------------------------------------------------------------------------------------------------
B|----------------------------------------------------2------------------------2/5v--3p2--3v--2h3--2v--
G|----------------------------------------------------2--4p2--4--4b6r4p2--4p2--------------------------
D|--2--3-------------4-------------4--2h4p2-----4------------------------------------------------------
A|-------------------------------------------4-----4---------------------------------------------------
E|--------0h2--2--2-----0h2--2--2----------------------------------------------------------------------

Stave 2:

E|------------------------------------------------------------------------2----------2--------------------
B|--2-----------2-----4-----2-----3p2-----3p2-----3-----2h3p2-----2----------2--5b7-----5--2--------------
G|-----4--4--4-----4-----4-----4-------4-------4-----4---------4-----4b6----------------------4b6r4p2--4--
D|--------------------------------------------------------------------------------------------------------
A|--------------------------------------------------------------------------------------------------------
E|--------------------------------------------------------------------------------------------------------

Stave 3:

E|-------------------------------------2----------------5-----7-----5--7b9r7p5--7-----5--7--5-----7-----5--
B|----------------------------------------2--5/7v--5h7-----7-----7-----------------7-----------7-----7-----
G|--4b6--2-----------4b5v--p2-----4b6----------------------------------------------------------------------
D|----------4--2---------------4---------------------------------------------------------------------------
A|----------------4----------------------------------------------------------------------------------------
E|---------------------------------------------------------------------------------------------------------

Stave 4:

E|--7b9r7p5--7------------------
B|--------------7--7b10--7--7v--
G|------------------------------
D|------------------------------
A|------------------------------
E|------------------------------

Stave 5:

E|--------5b7r5--4h5p4-----4-------------------------------------------------------------------------
B|--5-------------------7-----7--5--------5----------------------------------------------------------
G|-----6----------------------------6--4-----6--4--2--4b5r4p2-----4v--2-----4v--2-------4b5r4p2--4v--
D|-------------------------------------------------------------4---------4---------4p2---------------
A|---------------------------------------------------------------------------------------------------
E|---------------------------------------------------------------------------------------------------

Stave 6:

E|---------------------------------------2-----5b7--5--2-----2----------2--2-------2----------2----------2--
B|-------------------------2--5-------2-----2-------------5-----2--5b7--------5b7-----2--5b7-----2--5b7-----
G|--2--4--------2--4--4b6--------4b6------------------------------------------------------------------------
D|--------2--4----------------------------------------------------------------------------------------------
A|----------------------------------------------------------------------------------------------------------
E|----------------------------------------------------------------------------------------------------------

Stave 7:

E|-------5--7--7p5--------12b14--
B|--5/7-------------7/10---------
G|-------------------------------
D|-------------------------------
A|-------------------------------
E|-------------------------------

http://www.guitartabcreator.com
Guitar Tab Creator is intended to store guitar tab created through the tool. It currently does not support in-line text editing. Any text you place in here will be lost. If you need to comment on your tab, please use the "Tab Notes" section located below.