Sound will begin in 5 seconds

Harmonic Minor solo

01234567891011121314151617181920212223
E
B
G
D
A
E
B
0 1 2 3 4 5 6 7 8 9 10 11 12 13 14 15 16 17 18 19 20 21 22 23
Song Science #1: How Pros Use 6 Chords to Write Hit Songs
(/) Slide Up  (\) Slide Down  (h) Hammer On  (p) Pull Off  (b) Bend (r) Release (v) Vibrato

Stave 1:

E|-----------------------------------------------------------------------------------------------------
B|------------2----------2--------------------------------------------------------------------7-----6--
G|-------1h2-----2p1--2--------------------------------------------------------------------------------
D|--3/4---------------------3--4p3h4v------------------------------3h4--4/6--6b7r4--6p4--3h4-----4-----
A|--------------------------------------------------------------4--------------------------------------
E|-------------------------------------2p1--2--2--4--4--2--4/5-----------------------------------------

Stave 2:

E|-----4--
B|--------
G|--------
D|--4--6--
A|--------
E|--------

Stave 3:

E|-----------------------------------------------9--7--10--9---------7-----7h9p7\5h7p5\4h5b4----------
B|------------------------7--------6--7/9--7--6---------------10--9-----9---------------------5/6/7v--
G|----------6-----4--7\6-----6--4---------------------------------------------------------------------
D|--7p4--6-----6--------------------------------------------------------------------------------------
A|----------------------------------------------------------------------------------------------------
E|----------------------------------------------------------------------------------------------------

Stave 4:

E|--13b15--13b15r10--9--9--10p9------9--9h10p9----------9--10p9---------------------------
B|-------------------------------12-------------10--12-----------12--10--9--10b12r9-------
G|-----------------------------------------------------------------------------------11v--
D|----------------------------------------------------------------------------------------
A|----------------------------------------------------------------------------------------
E|----------------------------------------------------------------------------------------

http://www.guitartabcreator.com
Guitar Tab Creator is intended to store guitar tab created through the tool. It currently does not support in-line text editing. Any text you place in here will be lost. If you need to comment on your tab, please use the "Tab Notes" section located below.