Train Song - Mandolin Orange

Chords

01234567891011121314151617181920212223
E
B
G
D
A
E
B
0 1 2 3 4 5 6 7 8 9 10 11 12 13 14 15 16 17 18 19 20 21 22 23
(/) Slide Up  (\) Slide Down  (h) Hammer On  (p) Pull Off  (b) Bend (r) Release (v) Vibrato

Stave 1:

E|--0------------2----------3-----3-----3-----3----------0-----3-------------2-----2-----3-----3-----3-----3-----3-----0-----0-----3--
B|--1------------3----------3-----3-----3-----3----------1-----3-------------3-----3-----3-----3-----3-----3-----3-----1-----1-----3--
G|--0----0-------2----------0-----0-----0-----0----------0-----0-------------2-----2-----0-----0-----0-----0-----0-----0-----0-----0--
D|--0h2-----0h2--0----------0-----0-----0-----0----------2-----0-------0--0-----0--------0-----0-----0-----0-----0-----2-----2-----0--
A|--3---------------0h2-----2-----2-----2-----2--0h2--3--------2--2h3--------------------2--0-----0-----1-----2-----3-----3--------2--
E|-----------------------3-----3-----3-----3----------------3-------------------------3-----------------------------------------3-----

Stave 2:

E|-----3-----0-----0-----2-----3--
B|-----3-----0-----1-----3-----3--
G|-----0-----0-----0-----2-----0--
D|-----0-----2-----2--0--------0--
A|-----0-----2--3--------------2--
E|--2-----0-----------------3-----

							http://www.guitartabcreator.com
Instruments
{"strings":[[[0,".",".",".",".",".",".",2,".",".",".",".",3,".",3,".",3,".",3,".",".",".",".",0,".",3,".",".",".",".",".",2,".",2,".",3,".",3,".",3,".",3,".",3,".",0,".",0,".",3],[1,".",".",".",".",".",".",3,".",".",".",".",3,".",3,".",3,".",3,".",".",".",".",1,".",3,".",".",".",".",".",3,".",3,".",3,".",3,".",3,".",3,".",3,".",1,".",1,".",3],[0,".",".",0,".",".",".",2,".",".",".",".",0,".",0,".",0,".",0,".",".",".",".",0,".",0,".",".",".",".",".",2,".",2,".",0,".",0,".",0,".",0,".",0,".",0,".",0,".",0],[0,"h",2,".",0,"h",2,0,".",".",".",".",0,".",0,".",0,".",0,".",".",".",".",2,".",0,".",".",".",0,0,".",0,".",".",0,".",0,".",0,".",0,".",0,".",2,".",2,".",0],[3,".",".",".",".",".",".",".",0,"h",2,".",2,".",2,".",2,".",2,0,"h",2,3,".",".",2,2,"h",3,".",".",".",".",".",".",2,0,".",0,".",1,".",2,".",3,".",3,".",".",2],[".",".",".",".",".",".",".",".",".",".",".",3,".",3,".",3,".",3,".",".",".",".",".",".",3,".",".",".",".",".",".",".",".",".",3,".",".",".",".",".",".",".",".",".",".",".",".",".",3,"."]],[[".",3,".",0,".",0,".",2,".",3],[".",3,".",0,".",1,".",3,".",3],[".",0,".",0,".",0,".",2,".",0],[".",0,".",2,".",2,0,".",".",0],[".",0,".",2,3,".",".",".",".",2],[2,".",0,".",".",".",".",".",3,"."]]],"numberofstrings":6,"notes":["E","B","G","D","A","E","B"],"capo":0,"stringnotes":["E4","B3","G3","D3","A2","E2"],"comments":["Stave 1:","Stave 2:"],"timing":[["W","W","W","W","W",null,"W","W","W","W","W","W","W","W","W","W","W","W","W","W",null,"W","W","W","W","W","W",null,"W","W","W","W","W","W","W","W","W","W","W","W","W","W","W","W","W","W","W","W","W","W","W"],["W","W","W","W","W","W","W","W","W","W"]],"timingvisible":false,"tabcounter":9,"stave":1,"totalstaves":2,"instrument":"6guitar","selectedtuning":"6_standard","version":"13"}

Member for

2 weeks 1 day
Submitted by CynthiaSegal on Wed, 2020-07-29 16:02