Sound will begin in 5 seconds

Melvins - We Are Doomed

Chords
01234567891011121314151617181920212223
E
B
G
D
A
E
B
0 1 2 3 4 5 6 7 8 9 10 11 12 13 14 15 16 17 18 19 20 21 22 23
Song Science #1: How Pros Use 6 Chords to Write Hit Songs
(/) Slide Up  (\) Slide Down  (h) Hammer On  (p) Pull Off  (b) Bend (r) Release (v) Vibrato

Stave 1:

E|--------------|--
B|--------------|--
G|--------------|--
D|-----4--0-----|--
A|--5-----0--4--|--
E|--------0-----|--

Stave 2:

E|--------------------------------------|--
B|--------------------------------------|--
G|--------------------------------------|--
D|--7-----9-----5--5--5--5--5--5-----7--|--
A|--5-----7-----3--0--3--0--3--0-----5--|--
E|--------------------------------------|--

Stave 3:

E|------------------------------------------------------------------------------
B|------------------------------------------------------------------------------
G|--------3---------------------------------------------------------------------
D|--3-----2----------------------------7----------------------------------------
A|--1--------------------3--3p0-----------5---------------------3--3\5----------
E|--------------3--5--3----------0--0--------6v--5v--5/3--0--0----------6v--0v--

Stave 4:

E|--------------------------------------------------|--
B|--------------------------------------------------|--
G|--------------------------------------------------|--
D|--------------------------------------------------|--
A|--5--0--0--0--5--0--0--5--0--5-----0--5--0--0--0--|--
E|-----0--0--0-----0--0-----0--------0-----0--0--0--|--

Stave 5:

E|-----------------------------------------------------------------------|--
B|-----------------------------------------------------------------------|--
G|-----------------------------------------------------------------------|--
D|--5--7--------------------------------------5--7-----------------3-----|--
A|--3--5--0--0--0--5--0--0--0--------0--0--0--3--5-----------3--5-----5--|--
E|--------0--0--0-----0--0--0--3--5--0--0--0--------3--5--0--------------|--

Stave 6:

E|-----------------------------------------------------------------------------------------------------
B|-----------------------------------------------------------------------------------------------------
G|-----------------------------------------------------------------------------------------------------
D|-----------------------------------------------------------5--7--------------------------------------
A|--------0-----0-----0-----0--------0-----0-----0--0--0-----3--5--0--0--0--0--0--------0--0--0--0--0--
E|--3--3--0--5--0--1--0--3--0-----3--0--1--0--1--0--0--0-----------0--0--0--0--0--3--5--0--0--0--0--0--

Stave 7:

E|--------------------------------------------
B|--------------------------------------------
G|--------------------------------------------
D|-----------------5--7-----------------3-----
A|--------0--0--0--3--5-----------3--5-----5--
E|--3--5--0--0--0--------3--5--0--------------

Stave 8:

E|-----------------------------------------------------------------------------
B|-----------------------------------------------------------------------------
G|-----------------------------------------------------------------------------
D|-----------------------------------------------------------------------------
A|--------0-----0-----0-----0-----0--0-----0-----0-----0--------0-----0-----0--
E|--3--3--0--5--0--1--0--3--0-----0--0--3--0--1--0--1--0-----3--0--1--0--1--0--

Stave 9:

E|------------------------------------------------------------------------------------------------------
B|------------------------------------------------------------------------------------------------------
G|------------------------------------------------------------------------------------------------------
D|--------------------------------------------------------5v--------------------------------------------
A|-----0-----0-----0--------0-----0-----0--------0-----4---------0--0--0--0--0--0--0-----0--0--0--0--0--
E|--3--0--1--0--1--0-----3--0--1--0--1--0-----1--0---------------0--0--0--0--0--0--0--1--0--0--0--0--0--

Stave 10:

E|------------------------------------------------------------------------------------------
B|------------------------------------------------------------------------------------------
G|------------------------------------------------------------------------------------------
D|-----------5v-----------------------------------------------------5-----------------------
A|--0--0--4---------0--0--0--0--0--0--0-----0--0--0--0--0--0--0--4-----0--0--0--0--0--0--0--
E|--0--0------------0--0--0--0--0--0--0--1--0--0--0--0--0--0--0--------0--0--0--0--0--0--0--

Stave 11:

E|--------------------------------------------------------------------------------------------------
B|--------------------------------------------------------------------------------------------------
G|--------------------------------------------------------------------------------------------------
D|--------------------------------------------------5-----------------------------------------------
A|--0--0--0--0--0--0--0-----0--0--0--0--0--0--0--4-----0--0--0--0--0--0--0-----0--0--0--0--0--0--0--
E|--0--0--0--0--0--0--0--1--0--0--0--0--0--0--0--------0--0--0--0--0--0--0--1--0--0--0--0--0--0--0--

http://www.guitartabcreator.com
Guitar Tab Creator is intended to store guitar tab created through the tool. It currently does not support in-line text editing. Any text you place in here will be lost. If you need to comment on your tab, please use the "Tab Notes" section located below.