Midnight Blue

01234567891011121314151617181920212223
E
B
G
D
A
E
B
0 1 2 3 4 5 6 7 8 9 10 11 12 13 14 15 16 17 18 19 20 21 22 23
(/) Slide Up  (\) Slide Down  (h) Hammer On  (p) Pull Off  (b) Bend (r) Release (v) Vibrato

Stave 1:

E|--1--3--|--4--3--|--1--3--|--4--3--|--1--3--|--4--3--|--1--3--|--4--3-----|--
B|--1--3--|--4--3--|--1--3--|--4--3--|--1--3--|--4--3--|--1--3--|--4--3-----|--
G|--1--3--|--5--3--|--1--3--|--5--3--|--1--3--|--5--3--|--1--3--|--5--3-----|--
D|--------|--------|--------|--------|--------|--------|--------|-----------|--
A|--------|--------|--------|--------|--------|--------|--------|--------3--|--
E|--------|--------|--------|--------|--------|--------|--------|-----------|--

Stave 2:

E|-------------------------|-------------|-------------------------|-----------|--
B|-------------------------|-----4-------|-----4--6----------------|-----4-----|--
G|-----1-----5p3--1--------|-----3-----3h|--5--------5p3--1--------|-----3-----|--
D|--3-----3----------3--1--|--3--2--3----|-------------------3--1--|--3--2-----|--
A|-------------------------|-----3-------|-------------------------|-----3--3--|--
E|-------------------------|-------------|-------------------------|-----------|--

Stave 3:

E|-------------------------|-------------|-------------------------|-----------11--|--
B|-------------------------|-----4-------|-----4--6----------------|--------6--11--|--
G|-----1-----5p3--1--------|-----3-----3h|--5--------5p3--1--------|-----5-----10--|--
D|--3-----3----------3--1--|--3--2--3----|-------------------3--1--|--3--------11--|--
A|-------------------------|-----3-------|-------------------------|---------------|--
E|-------------------------|-------------|-------------------------|---------------|--

Stave 4:

E|--11--9--11--9--|--8--9--8--|---------|--------8--|--8--6--8--6--|--6--4--|--6--4-----4--6--6--|-----------
B|--11---------9--|--------9--|--10--9--|-----6--6--|--6--------4--|--4--4--|--------5-----------|--------4--
G|--10---------9--|--------8--|------8--|--5-----6--|--6--------4--|-----3--|--------------------|--------3--
D|--11---------8--|--------8--|------8--|--------6--|--6--------4--|-----3--|--------------------|-----2-----
A|----------------|-----------|---------|-----------|--------------|--------|--------------------|--3--------
E|----------------|-----------|---------|-----------|--------------|--------|--------------------|-----------

							http://www.guitartabcreator.com
Chords

genre
Instruments
{"strings":[[[1,3,"|",4,3,"|",1,3,"|",4,3,"|",1,3,"|",4,3,"|",1,3,"|",4,3,".","|"],[1,3,"|",4,3,"|",1,3,"|",4,3,"|",1,3,"|",4,3,"|",1,3,"|",4,3,".","|"],[1,3,"|",5,3,"|",1,3,"|",5,3,"|",1,3,"|",5,3,"|",1,3,"|",5,3,".","|"],[".",".","|",".",".","|",".",".","|",".",".","|",".",".","|",".",".","|",".",".","|",".",".",".","|"],[".",".","|",".",".","|",".",".","|",".",".","|",".",".","|",".",".","|",".",".","|",".",".",3,"|"],[".",".","|",".",".","|",".",".","|",".",".","|",".",".","|",".",".","|",".",".","|",".",".",".","|"]],[[".",".",".",".",".",".",".",".",".","|",".",".",".",".",".","|",".",".",".",".",".",".",".",".",".","|",".",".",".","|"],[".",".",".",".",".",".",".",".",".","|",".",4,".",".",".","|",".",4,6,".",".",".",".",".",".","|",".",4,".","|"],[".",1,".",5,"p",3,1,".",".","|",".",3,".",3,"h","|",5,".",".",5,"p",3,1,".",".","|",".",3,".","|"],[3,".",3,".",".",".",".",3,1,"|",3,2,3,".",".","|",".",".",".",".",".",".",".",3,1,"|",3,2,".","|"],[".",".",".",".",".",".",".",".",".","|",".",3,".",".",".","|",".",".",".",".",".",".",".",".",".","|",".",3,3,"|"],[".",".",".",".",".",".",".",".",".","|",".",".",".",".",".","|",".",".",".",".",".",".",".",".",".","|",".",".",".","|"]],[[".",".",".",".",".",".",".",".",".","|",".",".",".",".",".","|",".",".",".",".",".",".",".",".",".","|",".",".",".",11,"|"],[".",".",".",".",".",".",".",".",".","|",".",4,".",".",".","|",".",4,6,".",".",".",".",".",".","|",".",".",6,11,"|"],[".",1,".",5,"p",3,1,".",".","|",".",3,".",3,"h","|",5,".",".",5,"p",3,1,".",".","|",".",5,".",10,"|"],[3,".",3,".",".",".",".",3,1,"|",3,2,3,".",".","|",".",".",".",".",".",".",".",3,1,"|",3,".",".",11,"|"],[".",".",".",".",".",".",".",".",".","|",".",3,".",".",".","|",".",".",".",".",".",".",".",".",".","|",".",".",".",".","|"],[".",".",".",".",".",".",".",".",".","|",".",".",".",".",".","|",".",".",".",".",".",".",".",".",".","|",".",".",".",".","|"]],[[11,9,11,9,"|",8,9,8,"|",".",".","|",".",".",8,"|",8,6,8,6,"|",6,4,"|",6,4,".",4,6,6,"|",".",".","."],[11,".",".",9,"|",".",".",9,"|",10,9,"|",".",6,6,"|",6,".",".",4,"|",4,4,"|",".",".",5,".",".",".","|",".",".",4],[10,".",".",9,"|",".",".",8,"|",".",8,"|",5,".",6,"|",6,".",".",4,"|",".",3,"|",".",".",".",".",".",".","|",".",".",3],[11,".",".",8,"|",".",".",8,"|",".",8,"|",".",".",6,"|",6,".",".",4,"|",".",3,"|",".",".",".",".",".",".","|",".",2,"."],[".",".",".",".","|",".",".",".","|",".",".","|",".",".",".","|",".",".",".",".","|",".",".","|",".",".",".",".",".",".","|",3,".","."],[".",".",".",".","|",".",".",".","|",".",".","|",".",".",".","|",".",".",".",".","|",".",".","|",".",".",".",".",".",".","|",".",".","."]]],"numberofstrings":6,"notes":["E","B","G","D","A","E","B"],"capo":0,"stringnotes":["E4","B3","G3","D3","A2","E2"],"comments":["Stave 1:","Stave 2:","Stave 3:","Stave 4:"],"timing":[[null,null,null,null,null,null,null,null,null,null,null,null,null,null,null,null,null,null,null,null,null,null,null,null],[null,null,null,null,null,null,null,null,null,null,null,null,null,null,null,null,null,null,null,null,null,null,null,null,null,null,null,null,null],[null,null,null,null,null,null,null,null,null,null,null,null,null,null,null,null,null,null,null,null,null,null,null,null,null,null,null,null,null,null],[null,null,null,null,null,null,null,null,null,null,null,null,null,null,null,null,null,null,null,null,null,null,null,null,null,null,null,null,null,null,null,null,null,null]],"timingvisible":false,"tabcounter":34,"stave":3,"totalstaves":4,"instrument":"6guitar","selectedtuning":"6_standard","version":"13"}

Member for

8 months 2 weeks
About Me
Blues Guitarist
Submitted by cunningr on Fri, 2020-05-01 04:31