Sound will begin in 5 seconds

crazy-The cubikos

01234567891011121314151617181920212223
E
B
G
D
A
E
B
0 1 2 3 4 5 6 7 8 9 10 11 12 13 14 15 16 17 18 19 20 21 22 23
Song Science #1: How Pros Use 6 Chords to Write Hit Songs
(/) Slide Up  (\) Slide Down  (h) Hammer On  (p) Pull Off  (b) Bend (r) Release (v) Vibrato

(W|WW) Whole (H|HH) Half (Q|QQ) Quarter (E|EE) 8th (S|SS) 16th (T|TT) 32nd (X|XX) 64th

Stave 1:
t: W WW WW WW WW WW WW WW WW WW WW WW WW WW WW WW WW WW WW
E|----------------------------------------------------------------------------
B|----------------------------------------------------------------------------
G|--5\12--12--12--12--12--12--13--13--13--13--13--13--14--14--14--14--14--14--
D|----------------------------------------------------------------------------
A|----------------------------------------------------------------------------
E|----------------------------------------------------------------------------

Stave 2:
t: WW WW WW WW WW WW WW WW WW WW WW WW WW WW WW WW WW WW WW WW
E|----------------------------------------------------------------------------------
B|----------------------------------------------------------------------------------
G|--12--12--12--12--12--12--12--12--13--13--13--13--13--13--14--14--14--14--14--14--
D|----------------------------------------------------------------------------------
A|----------------------------------------------------------------------------------
E|----------------------------------------------------------------------------------

Stave 3:
t: WW WW WW WW WW W W W W W W W W W
E|-----------------------------------------------
B|-----------------------------------------------
G|--13--13--14--14\12----------------------------
D|-----------------------------------------------
A|-----------------------------------------------
E|---------------------0/1--1--1--1--1--1--1--1--

Stave 4:
t: TT TT TT T T TT TT TT T TT TT
E|--12h15--12-----0--12h15--12--0--12h15--
B|----------------------------------------
G|----------------------------------------
D|----------------------------------------
A|----------------------------------------
E|-------------0--------------------------

Stave 5:
t: T TT T TT T TT T
E|--9--12--9--12--9--12--9--
B|--------------------------
G|--------------------------
D|--------------------------
A|--------------------------
E|--------------------------

Stave 6:
t: TT TT TT TT WW WW W W W W W W W W W W
E|--------------------------------------------------------
B|--------------------------------------------------------
G|--12--12--12--12--11--10--9--8--7--6--5--4--3--2--1--0--
D|--------------------------------------------------------
A|--------------------------------------------------------
E|--------------------------------------------------------

Stave 7:
t: QQ QQ QQ QQ QQ QQ QQ QQ QQ QQ QQ QQ QQ QQ QQ Q
E|-------------------------------------------------------------
B|-------------------------------------------------------------
G|--12--12--12--12--13--13--13--13--14--14--14--14\12r12r12\1--
D|-------------------------------------------------------------
A|-------------------------------------------------------------
E|-------------------------------------------------------------

http://www.guitartabcreator.com
Guitar Tab Creator is intended to store guitar tab created through the tool. It currently does not support in-line text editing. Any text you place in here will be lost. If you need to comment on your tab, please use the "Tab Notes" section located below.