e

01234567891011121314151617181920212223
E
B
G
D
A
E
B
0 1 2 3 4 5 6 7 8 9 10 11 12 13 14 15 16 17 18 19 20 21 22 23
(/) Slide Up  (\) Slide Down  (h) Hammer On  (p) Pull Off  (b) Bend (r) Release (v) Vibrato

Stave 1:

E|--------------------------------------------------------------------------------------------
B|--9--------9--------9--9--------9--10/12-----12---------12-----12--10-----9----------9------
G|--8-----8--------------7-----7---------------9-------9-----------------9--9-------9-----11--
D|--9--9-----------9-----9--9------------------11--11-----------------------11--11--------10--
A|--7--------------------8---------------------9----------------------------12------------12--
E|--------------------------------------------------------------------------------------------

Stave 2:

E|-------------------------------------------------------------------------------------------------
B|--9-----9--------9--------9--9-----9--10--10\12--12-----12--10--------9----------9---------------
G|--8-----8-----8--------------7-----7-------------9------9-------9-----9-------9-----11--------9--
D|--9-----9--9-----------9-----9-----9-------------11-----11------------11--11--------10--------9--
A|--7-----7--------------------8-----8-------------9------9-------------12------------12--------7--
E|-------------------------------------------------------------------------------------------------

							http://www.guitartabcreator.com
Chords

Instruments
{"strings":[[[".",".",".",".","_",".",".",".",".",".",".",".",".",".",".",".",".",".",".","_",".",".",".",".",".",".",".","."],[9,".",".",9,"_",".",9,9,".",".",9,10,"/",12,".",12,".",".",12,"_",12,10,".",9,".",".",9,"."],[8,".",8,".","_",".",".",7,".",7,".",".",".",".",".",9,".",9,".","_",".",".",9,9,".",9,".",11],[9,9,".",".","_",9,".",9,9,".",".",".",".",".",".",11,11,".",".","_",".",".",".",11,11,".",".",10],[7,".",".",".","_",".",".",8,".",".",".",".",".",".",".",9,".",".",".","_",".",".",".",12,".",".",".",12],[".",".",".",".","_",".",".",".",".",".",".",".",".",".",".",".",".",".",".","_",".",".",".",".",".",".",".","."]],[[".","_",".",".",".",".","_",".",".",".","_",".",".",".",".",".",".","_",".",".",".","_",".",".",".",".",".","_","_","."],[9,"_",9,".",".",9,"_",".",9,9,"_",9,10,10,"\\",12,12,"_",12,10,".","_",9,".",".",9,".","_","_","."],[8,"_",8,".",8,".","_",".",".",7,"_",7,".",".",".",".",9,"_",9,".",9,"_",9,".",9,".",11,"_","_",9],[9,"_",9,9,".",".","_",9,".",9,"_",9,".",".",".",".",11,"_",11,".",".","_",11,11,".",".",10,"_","_",9],[7,"_",7,".",".",".","_",".",".",8,"_",8,".",".",".",".",9,"_",9,".",".","_",12,".",".",".",12,"_","_",7],[".","_",".",".",".",".","_",".",".",".","_",".",".",".",".",".",".","_",".",".",".","_",".",".",".",".",".","_","_","."]]],"numberofstrings":6,"notes":["E","B","G","D","A","E","B"],"capo":0,"stringnotes":["E4","B3","G3","D3","A2","E2"],"comments":["Stave 1:","Stave 2:"],"timing":[["W","W","W","W","W","W","W","W","W","W","W","W","W","W","W","W","W","W","W","W","W","W","W","W","W","W","W","W","W","W"],["W",null,"W","W","W","W",null,"W","W","W",null,"W","W","W",null,"W","W",null,"W","W","W",null,"W","W","W","W","W",null,null,"W"]],"timingvisible":false,"tabcounter":29,"stave":1,"totalstaves":2,"instrument":"6guitar","selectedtuning":"6_standard","version":"13"}

Member for

4 months
Submitted by ctruong67 on Thu, 2021-03-04 23:35