1

01234567891011121314151617181920212223
E
B
G
D
A
E
B
0 1 2 3 4 5 6 7 8 9 10 11 12 13 14 15 16 17 18 19 20 21 22 23
(/) Slide Up  (\) Slide Down  (h) Hammer On  (p) Pull Off  (b) Bend (r) Release (v) Vibrato

Stave 1:

E|---------------------------------------------------------------------------------------------------------------------------
B|---------------------------------------------------------------------------------------------------------------------------
G|--9--11--11\13-----13-----13--13--11--11--9--11\13-----13--13--13--11--13--16--11-----11--9--8-----8-----8--8--8--8-----8--
D|---------------------------------------------------------------------------------------------------------------------9-----
A|---------------------------------------------------------------------------------------------------------------------------
E|---------------------------------------------------------------------------------------------------------------------------

Stave 2:

E|------------------------------------------
B|------------------------------------------
G|-----8-----8--9--10\11--11--11--9--11\13--
D|--9-----9---------------------------------
A|------------------------------------------
E|------------------------------------------

Stave 3:

E|--------------------------------------------------------------------------------------------------------------------
B|--------------------------------------------------------------------------------------------------------------------
G|--9--11--11\13--13--13--11--13--11--13---------9--11\13--13--13--11--13--11--13--16--11--11--11--9--11--9--8--------
D|-------------------------------------------11-----------------------------------------------------------------9-----
A|--------------------------------------------------------------------------------------------------------------------
E|--------------------------------------------------------------------------------------------------------------------

Stave 4:

E|----------------------------------------------------------------------------------------------------------------------------------------
B|----------------------------------------------------------------------------------------------------------------------------------------
G|-----8--9--10\11--11--11--9--11/13--------9--11--11\13--13--13--11--11--9--9-------------11\13--13--13--11--13--11--13--16--20--20--20--
D|--9---------------------------------------------------------------------------11-----11-------------------------------------------------
A|----------------------------------------------------------------------------------------------------------------------------------------
E|----------------------------------------------------------------------------------------------------------------------------------------

Stave 5:

E|------------------------------------------------------------
B|--------------------------------16--17--19--19--19--17--21--
G|--21--20--16--20--16--------16------------------------------
D|------------------------------------------------------------
A|------------------------------------------------------------
E|------------------------------------------------------------

							http://www.guitartabcreator.com
Chords

Instruments
{"strings":[[[".",".",".",".",".","_",".","_",".",".",".",".",".",".",".",".","_",".",".",".",".",".",".",".","_",".",".",".","_",".","_",".",".",".",".",".","."],[".",".",".",".",".","_",".","_",".",".",".",".",".",".",".",".","_",".",".",".",".",".",".",".","_",".",".",".","_",".","_",".",".",".",".",".","."],[9,11,11,"\\",13,"_",13,"_",13,13,11,11,9,11,"\\",13,"_",13,13,13,11,13,16,11,"_",11,9,8,"_",8,"_",8,8,8,8,".",8],[".",".",".",".",".","_",".","_",".",".",".",".",".",".",".",".","_",".",".",".",".",".",".",".","_",".",".",".","_",".","_",".",".",".",".",9,"."],[".",".",".",".",".","_",".","_",".",".",".",".",".",".",".",".","_",".",".",".",".",".",".",".","_",".",".",".","_",".","_",".",".",".",".",".","."],[".",".",".",".",".","_",".","_",".",".",".",".",".",".",".",".","_",".",".",".",".",".",".",".","_",".",".",".","_",".","_",".",".",".",".",".","."]],[[".",".",".",".",".",".",".",".",".",".",".",".",".","."],[".",".",".",".",".",".",".",".",".",".",".",".",".","."],[".",8,".",8,9,10,"\\",11,11,11,9,11,"\\",13],[9,".",9,".",".",".",".",".",".",".",".",".",".","."],[".",".",".",".",".",".",".",".",".",".",".",".",".","."],[".",".",".",".",".",".",".",".",".",".",".",".",".","."]],[[".",".",".",".",".",".",".",".",".",".",".","_",".",".",".",".",".",".",".",".",".",".",".",".",".",".",".",".",".",".",".",".","."],[".",".",".",".",".",".",".",".",".",".",".","_",".",".",".",".",".",".",".",".",".",".",".",".",".",".",".",".",".",".",".",".","."],[9,11,11,"\\",13,13,13,11,13,11,13,"_",".",9,11,"\\",13,13,13,11,13,11,13,16,11,11,11,9,11,9,8,".","."],[".",".",".",".",".",".",".",".",".",".",".","_",11,".",".",".",".",".",".",".",".",".",".",".",".",".",".",".",".",".",".",9,"."],[".",".",".",".",".",".",".",".",".",".",".","_",".",".",".",".",".",".",".",".",".",".",".",".",".",".",".",".",".",".",".",".","."],[".",".",".",".",".",".",".",".",".",".",".","_",".",".",".",".",".",".",".",".",".",".",".",".",".",".",".",".",".",".",".",".","."]],[[".",".",".",".",".",".",".",".",".",".",".",".","_","_",".",".",".",".",".",".",".",".",".",".",".",".","_",".",".",".",".",".",".",".",".",".",".",".",".",".","."],[".",".",".",".",".",".",".",".",".",".",".",".","_","_",".",".",".",".",".",".",".",".",".",".",".",".","_",".",".",".",".",".",".",".",".",".",".",".",".",".","."],[".",8,9,10,"\\",11,11,11,9,11,"/",13,"_","_",9,11,11,"\\",13,13,13,11,11,9,9,".","_",".",11,"\\",13,13,13,11,13,11,13,16,20,20,20],[9,".",".",".",".",".",".",".",".",".",".",".","_","_",".",".",".",".",".",".",".",".",".",".",".",11,"_",11,".",".",".",".",".",".",".",".",".",".",".",".","."],[".",".",".",".",".",".",".",".",".",".",".",".","_","_",".",".",".",".",".",".",".",".",".",".",".",".","_",".",".",".",".",".",".",".",".",".",".",".",".",".","."],[".",".",".",".",".",".",".",".",".",".",".",".","_","_",".",".",".",".",".",".",".",".",".",".",".",".","_",".",".",".",".",".",".",".",".",".",".",".",".",".","."]],[[".",".",".",".",".","_","_",".",".",".",".",".",".",".","."],[".",".",".",".",".","_","_",".",16,17,19,19,19,17,21],[21,20,16,20,16,"_","_",16,".",".",".",".",".",".","."],[".",".",".",".",".","_","_",".",".",".",".",".",".",".","."],[".",".",".",".",".","_","_",".",".",".",".",".",".",".","."],[".",".",".",".",".","_","_",".",".",".",".",".",".",".","."]]],"numberofstrings":6,"notes":["E","B","G","D","A","E","B"],"capo":0,"stringnotes":["E4","B3","G3","D3","A2","E2"],"comments":["Stave 1:","Stave 2:","Stave 3:","Stave 4:","Stave 5:"],"timing":[["W","W","W",null,"W",null,"W","W","W","W","W","W","W","W",null,"W",null,"W","W","W","W","W",null,"W","W","W",null,"W",null,"W","W","W","W","W","W",null,null,"W","W","W",null,"W","W","W","W","W",null,"W","W","W","W"],["W","W","W","W",null,"W","W","W","W","W","W","W","W","W",null,"W","W","W","W",null,"W","W","W","W","W",null,"W"],["W","W","W",null,"W","W","W","W","W","W","W","W","W","W","W",null,"W","W","W","W","W","W","W","W","W","W","W","W","W","W","W","W","W",null,"W","W","W","W","W"],["W","W","W","W",null,"W","W","W","W","W",null,null,"W","W","W",null,"W","W","W","W","W","W","W","W",null,null,"W","W","W","W","W","W","W","W","W","W","W","W","W","W","W"],["W","W","W","W","W",null,null,"W","W","W","W","W","W","W","W","W"]],"timingvisible":false,"tabcounter":15,"stave":4,"totalstaves":5,"instrument":"6guitar","selectedtuning":"6_standard","version":"13"}

Member for

4 months
Submitted by ctruong67 on Fri, 2021-03-05 00:22