toontown theme F

Chords

01234567891011121314151617181920212223
E
B
G
D
A
E
B
0 1 2 3 4 5 6 7 8 9 10 11 12 13 14 15 16 17 18 19 20 21 22 23
(/) Slide Up  (\) Slide Down  (h) Hammer On  (p) Pull Off  (b) Bend (r) Release (v) Vibrato

Stave 1:

E|--------0--1--------1--0--------------0--1-----------1--0--1--0--------
B|--1--3--------1--1--------3--1--1--3--------1--1--1--------------3--1--
G|-----------------------------------------------------------------------
D|-----------------------------------------------------------------------
A|-----------------------------------------------------------------------
E|-----------------------------------------------------------------------

Stave 2:

E|--------------------------------------------------------------0--1--3--
B|-----0--2--3--------3--2--0--------0--2--3-----------3--1--3-----------
G|--2-----------2--2-----------2--2-----------2--2--2--------------------
D|-----------------------------------------------------------------------
A|-----------------------------------------------------------------------
E|-----------------------------------------------------------------------

Stave 3:

E|-----------------------------------------------
B|--------------------1--1-----------------------
G|--------0--0--0--2-----------0--0--2--0--------
D|--0--2--------------------2--------------2--0--
A|-----------------------------------------------
E|-----------------------------------------------

Stave 4:

E|-----------------------------------------0--------------------------
B|--------------------------1--1-----1--3-----3--1--------------------
G|-----------0--0-----0--2--------2-----------------0-----------------
D|-----0--2--------2--------------------------------------0--2--0-----
A|--3--------------------------------------------------3-----------3--
E|--------------------------------------------------------------------

Stave 5:

E|-----------------------------------------------------------
B|-----------------------------------------------------------
G|-----------------------------------------------------------
D|--2--4--2--4--2--4--2--0-----------------------------------
A|--------------------------4--2--0--2--0--2--0--2--0--0-----
E|--------------------------------------------------------3--

Stave 6:

E|-----------------------------------------------------
B|--------------------------0--2--0--------------------
G|--------------2--2-----2-----------2-----------------
D|-----------4--------4--------------------------------
A|-----0--0-----------------------------0--2--4--2--0--
E|--2--------------------------------------------------

							http://www.guitartabcreator.com
Instruments
{"title":"","strings":[[[".",".",0,1,".",".",1,0,".",".",".",".",0,1,".",".",".",1,0,1,0,".","."],[1,3,".",".",1,1,".",".",3,1,1,3,".",".",1,1,1,".",".",".",".",3,1],[".",".",".",".",".",".",".",".",".",".",".",".",".",".",".",".",".",".",".",".",".",".","."],[".",".",".",".",".",".",".",".",".",".",".",".",".",".",".",".",".",".",".",".",".",".","."],[".",".",".",".",".",".",".",".",".",".",".",".",".",".",".",".",".",".",".",".",".",".","."],[".",".",".",".",".",".",".",".",".",".",".",".",".",".",".",".",".",".",".",".",".",".","."]],[[".",".",".",".",".",".",".",".",".",".",".",".",".",".",".",".",".",".",".",".",0,1,3],[".",0,2,3,".",".",3,2,0,".",".",0,2,3,".",".",".",3,1,3,".",".","."],[2,".",".",".",2,2,".",".",".",2,2,".",".",".",2,2,2,".",".",".",".",".","."],[".",".",".",".",".",".",".",".",".",".",".",".",".",".",".",".",".",".",".",".",".",".","."],[".",".",".",".",".",".",".",".",".",".",".",".",".",".",".",".",".",".",".",".",".",".","."],[".",".",".",".",".",".",".",".",".",".",".",".",".",".",".",".",".",".",".",".",".",".","."]],[[".",".",".",".",".",".",".",".",".",".",".",".",".",".","."],[".",".",".",".",".",".",1,1,".",".",".",".",".",".","."],[".",".",0,0,0,2,".",".",".",0,0,2,0,".","."],[0,2,".",".",".",".",".",".",2,".",".",".",".",2,0],[".",".",".",".",".",".",".",".",".",".",".",".",".",".","."],[".",".",".",".",".",".",".",".",".",".",".",".",".",".","."]],[[".",".",".",".",".",".",".",".",".",".",".",".",".",0,".",".",".",".",".",".",".","."],[".",".",".",".",".",".",".",".",1,1,".",1,3,".",3,1,".",".",".",".",".","."],[".",".",".",0,0,".",0,2,".",".",2,".",".",".",".",".",0,".",".",".",".","."],[".",0,2,".",".",2,".",".",".",".",".",".",".",".",".",".",".",".",0,2,0,"."],[3,".",".",".",".",".",".",".",".",".",".",".",".",".",".",".",".",3,".",".",".",3],[".",".",".",".",".",".",".",".",".",".",".",".",".",".",".",".",".",".",".",".",".","."]],[[".",".",".",".",".",".",".",".",".",".",".",".",".",".",".",".",".",".","."],[".",".",".",".",".",".",".",".",".",".",".",".",".",".",".",".",".",".","."],[".",".",".",".",".",".",".",".",".",".",".",".",".",".",".",".",".",".","."],[2,4,2,4,2,4,2,0,".",".",".",".",".",".",".",".",".",".","."],[".",".",".",".",".",".",".",".",4,2,0,2,0,2,0,2,0,0,"."],[".",".",".",".",".",".",".",".",".",".",".",".",".",".",".",".",".",".",3]],[[".",".",".",".",".",".",".",".",".",".",".",".",".",".",".",".","."],[".",".",".",".",".",".",".",".",0,2,0,".",".",".",".",".","."],[".",".",".",".",2,2,".",2,".",".",".",2,".",".",".",".","."],[".",".",".",4,".",".",4,".",".",".",".",".",".",".",".",".","."],[".",0,0,".",".",".",".",".",".",".",".",".",0,2,4,2,0],[2,".",".",".",".",".",".",".",".",".",".",".",".",".",".",".","."]]],"numberofstrings":6,"notes":["E","B","G","D","A","E","B"],"capo":0,"stringnotes":["E4","B3","G3","D3","A2","E2"],"comments":["Stave 1:","Stave 2:","Stave 3:","Stave 4:","Stave 5:","Stave 6:","Stave 7:"],"timing":[["W","W","W","W","W","W","W","W","W","W","W","W","W","W","W","W","W","W","W","W","W","W","W"],["W","W","W","W","W","W","W","W","W","W","W","W","W","W","W","W","W","W","W","W","W","W","W"],["W","W","W","W","W","W","W","W","W","W","W","W","W","W","W"],["W","W","W","W","W","W","W","W","W","W","W","W","W","W","W","W","W","W","W","W","W","W"],["W","W","W","W","W","W","W","W","W","W","W","W","W","W","W","W","W","W","W","W","W","W","W","W"],["W","W","W","W","W","W","W","W","W","W","W","W","W","W","W","W","W","W","W"],["W","W","W","W","W","W","W","W","W","W","W","W","W","W","W","W","W"]],"timingvisible":false,"tabcounter":17,"stave":5,"totalstaves":6,"instrument":"6guitar","selectedtuning":"6_standard","version":"13"}

Member for

8 months 3 weeks
Submitted by ct123 on Thu, 2019-09-12 04:01