Sound will begin in 5 seconds

Neptune Island (main theme)

01234567891011121314151617181920212223
E
B
G
D
A
E
B
0 1 2 3 4 5 6 7 8 9 10 11 12 13 14 15 16 17 18 19 20 21 22 23
Song Science #1: How Pros Use 6 Chords to Write Hit Songs
(/) Slide Up  (\) Slide Down  (h) Hammer On  (p) Pull Off  (b) Bend (r) Release (v) Vibrato

Stave 1:

E|--------------------------------------------------------------------
B|--10h12p10p0--19--7h8p7p0--14--2h3p2p0--7p3--7p3p2p0--7p3--7p3p2p0--
G|--------------------------------------------------------------------
D|--------------------------------------------------------------------
A|--------------------------------------------------------------------
E|--------------------------------------------------------------------

Stave 2:

E|--------------------------------------------------------------------
B|----7p3--7p3p2p0--7p3--7p3p2p0--10h12p10p0--19--7h8p7p0--14--2h3p0--
G|--------------------------------------------------------------------
D|--------------------------------------------------------------------
A|--------------------------------------------------------------------
E|--------------------------------------------------------------------

Stave 3:

E|----------------------------------------------------
B|--7p3--7p3p2p0--7p3--7p3p2p0--7p3p2p0---------------
G|---------------------------------------7p4p2p0------
D|------------------------------------------------4v--
A|----------------------------------------------------
E|----------------------------------------------------

Stave 4:

E|------------------------------9p7p5---------10p9p7----------12p10p9--
B|-----------------------9p5h7---------9p7p5----------10p9p7-----------
G|----------------9p6h7------------------------------------------------
D|---------9p5h7-------------------------------------------------------
A|--9p5h7--------------------------------------------------------------
E|---------------------------------------------------------------------

Stave 5:

E|-----------14p12p10------------15p14p12------------17p15p14------------
B|--12p10p9------------14p12p10------------15p14p12------------17p15p14--
G|-----------------------------------------------------------------------
D|-----------------------------------------------------------------------
A|-----------------------------------------------------------------------
E|-----------------------------------------------------------------------

Stave 6:

E|--19p17p15------------21p19p17------------
B|------------19p17p15------------21p19p17--
G|------------------------------------------
D|------------------------------------------
A|------------------------------------------
E|------------------------------------------

http://www.guitartabcreator.com
Guitar Tab Creator is intended to store guitar tab created through the tool. It currently does not support in-line text editing. Any text you place in here will be lost. If you need to comment on your tab, please use the "Tab Notes" section located below.