The Interrupters - Take Back The Power

01234567891011121314151617181920212223
E
B
G
D
A
E
B
0 1 2 3 4 5 6 7 8 9 10 11 12 13 14 15 16 17 18 19 20 21 22 23
(/) Slide Up  (\) Slide Down  (h) Hammer On  (p) Pull Off  (b) Bend (r) Release (v) Vibrato

Stave 1:

G|-----------------------------0-1-|---------------------------------
D|---------------------------------|-2-2-2-2-2-2-2-1-------------0-1-
A|-2-2-2-2-2-2-2-2-2-2-2-2-2-2-----|-----------------2-2-2-2-2-2-----
E|---------------------------------|---------------------------------

Stave 2:

G|---------------------------------|-----------------------------:|-
D|-2-2-2-2-2-2-2-1-----------------|-----------------------------:|-
A|-----------------2-2-2-2-2-2-2-2-|-----------------------------:|-
E|---------------------------------|-4-4-4-4-4-4-4-4-2-2-2-2---2-:|-

Stave 3:

G|---------------------4-4-1-1-----|---------------------------------
D|-----------------------------4-1-|-2-2-2-2-2-2-2-1-------------0-1-
A|-2-2-2-2-2-2-2-2-2-2-------------|-----------------2-2-2-2-2-2-----
E|---------------------------------|---------------------------------

Stave 4:

G|---------------------------------|---------------------------------|-
D|-2-2-2-2-2-2-2-1-----------------|---------------------------------|-
A|-----------------2-2-2-2-2-2-2-2-|---------------------------------|-
E|---------------------------------|-4-4-4-4-4-4-4-4-2-2-2-2-2-2-2-2-|-

Stave 5:

G|---------------------4-4-1-1-----|---------------------------------|-
D|-----------------------------4-1-|-2-2-2-2-2-2-2-1-------------0-1-|-
A|-2-2-2-2-2-2-2-2-2-2-------------|-----------------2-2-2-2-2-2-----|-
E|---------------------------------|---------------------------------|-

Stave 6:

G|---------------------------------|---------------------------------
D|-2-2-2-2-2-2-2-1-----1-1-2-2-4-4-|-----8-8-6-6-4-4-----6-6-4-4-3-3-
A|-----------------2-2-------------|-6-6-------------4-4-------------
E|---------------------------------|---------------------------------

Stave 7:

G|---------------------------------|-----------------------------------------
D|---------5-5-------------6-6-----|-9-9-----------------9-9-----------------
A|-6-6-6-6-----6-6-7-7-7-7-----7-7-|-----11-11-9-9-11-11-----11-11-9-9-11-11-
E|---------------------------------|-----------------------------------------

Stave 8:

G|---------------------------------|---------6-------6---6---------|-
D|---------5-5-------------6-6-----|-4-4-4-4---4-4-4---4-----------|-
A|-6-6-6-6-----6-6-7-7-7-7-----7-7-|-------------------------------|-
E|---------------------------------|-------------------------2---2-|-

Stave 9:

G|---------------------------------|---------------------------------
D|-----------------------------0-1-|-2-2-2-2-2-2-2-1-------------0-1-
A|-2-2-2-2-2-2-2-2-2-2-2-2-2-2-----|-----------------2-2-2-2-2-2-----
E|---------------------------------|---------------------------------

Stave 10:

G|---------------------------------|---------------------------------:|-
D|-2-2-2-2-2-2-2-1-----------------|---------------------------------:|-
A|-----------------2-2-2-2-2-2-2-2-|---------------------------------:|-
E|---------------------------------|-4-4-4-4-4-4-4-4-2-2-2-2-2-2-2-2-:|-

Stave 11:

G|---------------------------------|---------------------------------|-
D|-----------------------------0-1-|-2-2-2-2-2-2-2-1-------------0-1-|-
A|-2-2-2-2-2-2-2-2-2-2-2-2-2-2-----|-----------------2-2-2-2-2-2-----|-
E|---------------------------------|---------------------------------|-

Stave 12:

G|---------------------------------|---------------------------------|-
D|-2-2-2-2-2-2-2-1-----1-1-2-2-4-4-|-----8-8-6-6-4-4-----6-6-4-4-3-3-|-
A|-----------------2-2-------------|-6-6-------------4-4-------------|-
E|---------------------------------|---------------------------------|-

Stave 13:

G|---------------------------------|---------------------------------
D|-----------------------------0-1-|-2-2-2-2-2-2-2-1-------------0-1-
A|-2-2-2-2-2-2-2-2-2-2-2-2-2-2-----|-----------------2-2-2-2-2-2-----
E|---------------------------------|---------------------------------

Stave 14:

G|---------------------------------|---------------------------------:|-
D|-2-2-2-2-2-2-2-1-----------------|---------------------------------:|-
A|-----------------2-2-2-2-2-2-2-2-|---------------------------------:|-
E|---------------------------------|-4-4-4-4-4-4-4-4-2-2-2-2-2-2-2-2-:|-

Stave 15:

G|---------------------------------|-----------------------------------------
D|---------5-5-------------6-6-----|-9-9-----------------9-9-----------------
A|-6-6-6-6-----6-6-7-7-7-7-----7-7-|-----11-11-9-9-11-11-----11-11-9-9-11-11-
E|---------------------------------|-----------------------------------------

Stave 16:

G|---------------------------------|---------6-------6---6---------|-
D|---------5-5-------------6-6-----|-4-4-4-4---4-4-4---4-----------|-
A|-6-6-6-6-----6-6-7-7-7-7-----7-7-|-------------------------------|-
E|---------------------------------|-------------------------2---2-|-

Stave 17:

G|---------------------------------|---------------------------------
D|-----------------------------0-1-|-2-2-2-2-2-2-2-1-------------0-1-
A|-2-2-2-2-2-2-2-2-2-2-2-2-2-2-----|-----------------2-2-2-2-2-2-----
E|---------------------------------|---------------------------------

Stave 18:

G|---------------------------------|---------------------------------:|-----
D|-2-2-2-2-2-2-2-1-----------------|---------------------------------:|-----
A|-----------------2-2-2-2-2-2-2-2-|---------------------------------:|-2-2-
E|---------------------------------|-4-4-4-4-4-4-4-4-2-2-2-2-2-2-2-2-:|-----

Stave 19:

G|---------------------------------|---------------------------------
D|-----------------------------2-3-|-4-4-4-4-4-4-4-3-------------2-3-
A|-4-4-4-4-4-4-4-4-4-4-4-4-4-4-----|-----------------4-4-4-4-4-4-----
E|---------------------------------|---------------------------------

Stave 20:

G|---------------------------------|-----8-8-10-10-8-8-----6-6-8-8-6-6-
D|-4-4-4-4-4-4-4-3-----3-3-4-4-6-6-|-8-8---------------6-6-------------
A|-----------------4-4-------------|-----------------------------------
E|---------------------------------|-----------------------------------

Stave 21:

G|---------------------------------|-------------------------------------------------
D|---------8-8-------------9-9-----|-------------------------11-11-------------------
A|-8-8-8-8-----8-8-9-9-9-9-----9-9-|-11-11-13-13-11-11-13-13-------13-13-11-11-13-13-
E|---------------------------------|-------------------------------------------------

Stave 22:

G|---------------------------------|---------8-------8---8---------
D|---------8-8-------------9-9-----|-6-6-6-6---6-6-6---6-----------
A|-8-8-8-8-----8-8-9-9-9-9-----9-9-|-------------------------------
E|---------------------------------|-------------------------4---4-

Stave 23:

G|-------------------|---------------------------
D|---------------6-7-|---8-------------6---------
A|-4-----------8-----|---------------------------
E|-------------------|---------------------4---4-

Stave 24:

G|---------------------------------|---------------------------------
D|-----------------------------2-3-|-4-4-4-4-4-4-4-3-------------2-3-
A|-4-4-4-4-4-4-4-4-4-4-4-4-4-4-----|-----------------4-4-4-4-4-4-----
E|---------------------------------|---------------------------------

Stave 25:

G|---------------------------------|-----8-8-10-10-8-8-----6-6-8-8-6-6-
D|-4-4-4-4-4-4-4-3-----3-3-4-4-6-6-|-8-8---------------6-6-------------
A|-----------------4-4-------------|-----------------------------------
E|---------------------------------|-----------------------------------

Stave 26:

G|---------------------------------|-------------------------------
D|-----------------------------2-3-|-4-4-4-4-4-4-3-------------2-3-
A|-4-4-4-4-4-4-4-4-4-4-4-4-4-4-----|---------------4-4-4-4-4-4-----
E|---------------------------------|-------------------------------

Stave 27:

G|---------------------------------|-----10-10-8-8-6-6-----8-8-6-6-5-5-
D|-4-4-4-4-4-4-4-3-----3-3-4-4-6-6-|-8-8---------------6-6-------------
A|-----------------4-4-------------|-----------------------------------
E|---------------------------------|-----------------------------------

Stave 28:

G|-----8-8-10-10-8-8-----6-6-8-8-6-6-|-----10-10-8-8-6-6-----8-8-------
D|-8-8---------------6-6-------------|-8-8---------------6-6-----------
A|-----------------------------------|---------------------------------
E|-----------------------------------|---------------------------4---4-

Stave 29:

G|-------------
D|-------------
A|-4-----------
E|-------------

							http://www.guitartabcreator.com
Chords

Instruments
{"strings":[[[".",".",".",".",".",".",".",".",".",".",".",".",".",".",0,1,null,null,null,"|",".",".",".",".",".",".",".",".",".",".",".",".",".",".",".",".",null,null,null],[".",".",".",".",".",".",".",".",".",".",".",".",".",".",".",".",null,null,"|",null,2,2,2,2,2,2,2,1,".",".",".",".",".",".",0,1,null,null],[2,2,2,2,2,2,2,2,2,2,2,2,2,2,".",".",null,"|",null,null,".",".",".",".",".",".",".",".",2,2,2,2,2,2,".",".",null],[".",".",".",".",".",".",".",".",".",".",".",".",".",".",".",".","|",null,null,null,".",".",".",".",".",".",".",".",".",".",".",".",".",".",".","."]],[[".",".",".",".",".",".",".",".",".",".",".",".",".",".",".",".",null,null,null,"|",".",".",".",".",".",".",".",".",".",".",".",".","_",".",":|"],[2,2,2,2,2,2,2,1,".",".",".",".",".",".",".",".",null,null,"|",null,".",".",".",".",".",".",".",".",".",".",".",".","_",".",":|"],[".",".",".",".",".",".",".",".",2,2,2,2,2,2,2,2,null,"|",null,null,".",".",".",".",".",".",".",".",".",".",".",".","_",".",":|"],[".",".",".",".",".",".",".",".",".",".",".",".",".",".",".",".","|",null,null,null,4,4,4,4,4,4,4,4,2,2,2,2,"_",2,":|"]],[[".",".",".",".",".",".",".",".",".",".",4,4,1,1,".",".",null,null,null,"|",".",".",".",".",".",".",".",".",".",".",".",".",".",".",".","."],[".",".",".",".",".",".",".",".",".",".",".",".",".",".",4,1,null,null,"|",null,2,2,2,2,2,2,2,1,".",".",".",".",".",".",0,1],[2,2,2,2,2,2,2,2,2,2,".",".",".",".",".",".",null,"|",null,null,".",".",".",".",".",".",".",".",2,2,2,2,2,2,".","."],[".",".",".",".",".",".",".",".",".",".",".",".",".",".",".",".","|",null,null,null,".",".",".",".",".",".",".",".",".",".",".",".",".",".",".","."]],[[".",".",".",".",".",".",".",".",".",".",".",".",".",".",".",".",null,null,null,"|",".",".",".",".",".",".",".",".",".",".",".",".",".",".",".",".",null,null,null,"|"],[2,2,2,2,2,2,2,1,".",".",".",".",".",".",".",".",null,null,"|",null,".",".",".",".",".",".",".",".",".",".",".",".",".",".",".",".",null,null,"|"],[".",".",".",".",".",".",".",".",2,2,2,2,2,2,2,2,null,"|",null,null,".",".",".",".",".",".",".",".",".",".",".",".",".",".",".",".",null,"|"],[".",".",".",".",".",".",".",".",".",".",".",".",".",".",".",".","|",null,null,null,4,4,4,4,4,4,4,4,2,2,2,2,2,2,2,2,"|"]],[[".",".",".",".",".",".",".",".",".",".",4,4,1,1,".",".",null,null,null,"|",".",".",".",".",".",".",".",".",".",".",".",".",".",".",".",".",null,null,null,"|"],[".",".",".",".",".",".",".",".",".",".",".",".",".",".",4,1,null,null,"|",null,2,2,2,2,2,2,2,1,".",".",".",".",".",".",0,1,null,null,"|"],[2,2,2,2,2,2,2,2,2,2,".",".",".",".",".",".",null,"|",null,null,".",".",".",".",".",".",".",".",2,2,2,2,2,2,".",".",null,"|"],[".",".",".",".",".",".",".",".",".",".",".",".",".",".",".",".","|",null,null,null,".",".",".",".",".",".",".",".",".",".",".",".",".",".",".",".","|"]],[[".",".",".",".",".",".",".",".",".",".",".",".",".",".",".",".",null,null,null,"|",".",".",".",".",".",".",".",".",".",".",".",".",".",".",".","."],[2,2,2,2,2,2,2,1,".",".",1,1,2,2,4,4,null,null,"|",null,".",".",8,8,6,6,4,4,".",".",6,6,4,4,3,3],[".",".",".",".",".",".",".",".",2,2,".",".",".",".",".",".",null,"|",null,null,6,6,".",".",".",".",".",".",4,4,".",".",".",".",".","."],[".",".",".",".",".",".",".",".",".",".",".",".",".",".",".",".","|",null,null,null,".",".",".",".",".",".",".",".",".",".",".",".",".",".",".","."]],[[".",".",".",".",".",".",".",".",".",".",".",".",".",".",".",".",null,null,null,"|",".",".",".",".",".",".",".",".",".",".",".",".",".",".",".","."],[".",".",".",".",5,5,".",".",".",".",".",".",6,6,".",".",null,null,"|",null,9,9,".",".",".",".",".",".",9,9,".",".",".",".",".","."],[6,6,6,6,".",".",6,6,7,7,7,7,".",".",7,7,null,"|",null,null,".",".",11,11,9,9,11,11,".",".",11,11,9,9,11,11],[".",".",".",".",".",".",".",".",".",".",".",".",".",".",".",".","|",null,null,null,".",".",".",".",".",".",".",".",".",".",".",".",".",".",".","."]],[[".",".",".",".",".",".",".",".",".",".",".",".",".",".",".",".",null,null,null,"|",".",".",".",".",6,".",".",".",6,".",6,"_",".","_",".",null,null,null,"|"],[".",".",".",".",5,5,".",".",".",".",".",".",6,6,".",".",null,null,"|",null,4,4,4,4,".",4,4,4,".",4,".","_",".","_",".",null,null,"|"],[6,6,6,6,".",".",6,6,7,7,7,7,".",".",7,7,null,"|",null,null,".",".",".",".",".",".",".",".",".",".",".","_",".","_",".",null,"|"],[".",".",".",".",".",".",".",".",".",".",".",".",".",".",".",".","|",null,null,null,".",".",".",".",".",".",".",".",".",".",".","_",2,"_",2,"|"]],[[".",".",".",".",".",".",".",".",".",".",".",".",".",".",".",".",null,null,null,"|",".",".",".",".",".",".",".",".",".",".",".",".",".",".",".","."],[".",".",".",".",".",".",".",".",".",".",".",".",".",".",0,1,null,null,"|",null,2,2,2,2,2,2,2,1,".",".",".",".",".",".",0,1],[2,2,2,2,2,2,2,2,2,2,2,2,2,2,".",".",null,"|",null,null,".",".",".",".",".",".",".",".",2,2,2,2,2,2,".","."],[".",".",".",".",".",".",".",".",".",".",".",".",".",".",".",".","|",null,null,null,".",".",".",".",".",".",".",".",".",".",".",".",".",".",".","."]],[[".",".",".",".",".",".",".",".",".",".",".",".",".",".",".",".",null,null,null,"|",".",".",".",".",".",".",".",".",".",".",".",".",".",".",".",".",":|"],[2,2,2,2,2,2,2,1,".",".",".",".",".",".",".",".",null,null,"|",null,".",".",".",".",".",".",".",".",".",".",".",".",".",".",".",".",":|"],[".",".",".",".",".",".",".",".",2,2,2,2,2,2,2,2,null,"|",null,null,".",".",".",".",".",".",".",".",".",".",".",".",".",".",".",".",":|"],[".",".",".",".",".",".",".",".",".",".",".",".",".",".",".",".","|",null,null,null,4,4,4,4,4,4,4,4,2,2,2,2,2,2,2,2,":|"]],[[".",".",".",".",".",".",".",".",".",".",".",".",".",".",".",".",null,null,null,"|",".",".",".",".",".",".",".",".",".",".",".",".",".",".",".",".",null,null,null,"|"],[".",".",".",".",".",".",".",".",".",".",".",".",".",".",0,1,null,null,"|",null,2,2,2,2,2,2,2,1,".",".",".",".",".",".",0,1,null,null,"|"],[2,2,2,2,2,2,2,2,2,2,2,2,2,2,".",".",null,"|",null,null,".",".",".",".",".",".",".",".",2,2,2,2,2,2,".",".",null,"|"],[".",".",".",".",".",".",".",".",".",".",".",".",".",".",".",".","|",null,null,null,".",".",".",".",".",".",".",".",".",".",".",".",".",".",".",".","|"]],[[".",".",".",".",".",".",".",".",".",".",".",".",".",".",".",".",null,null,null,"|",".",".",".",".",".",".",".",".",".",".",".",".",".",".",".",".",null,null,null,"|"],[2,2,2,2,2,2,2,1,".",".",1,1,2,2,4,4,null,null,"|",null,".",".",8,8,6,6,4,4,".",".",6,6,4,4,3,3,null,null,"|"],[".",".",".",".",".",".",".",".",2,2,".",".",".",".",".",".",null,"|",null,null,6,6,".",".",".",".",".",".",4,4,".",".",".",".",".",".",null,"|"],[".",".",".",".",".",".",".",".",".",".",".",".",".",".",".",".","|",null,null,null,".",".",".",".",".",".",".",".",".",".",".",".",".",".",".",".","|"]],[[".",".",".",".",".",".",".",".",".",".",".",".",".",".",".",".",null,null,null,"|",".",".",".",".",".",".",".",".",".",".",".",".",".",".",".","."],[".",".",".",".",".",".",".",".",".",".",".",".",".",".",0,1,null,null,"|",null,2,2,2,2,2,2,2,1,".",".",".",".",".",".",0,1],[2,2,2,2,2,2,2,2,2,2,2,2,2,2,".",".",null,"|",null,null,".",".",".",".",".",".",".",".",2,2,2,2,2,2,".","."],[".",".",".",".",".",".",".",".",".",".",".",".",".",".",".",".","|",null,null,null,".",".",".",".",".",".",".",".",".",".",".",".",".",".",".","."]],[[".",".",".",".",".",".",".",".",".",".",".",".",".",".",".",".",null,null,null,"|",".",".",".",".",".",".",".",".",".",".",".",".",".",".",".",".",":|"],[2,2,2,2,2,2,2,1,".",".",".",".",".",".",".",".",null,null,"|",null,".",".",".",".",".",".",".",".",".",".",".",".",".",".",".",".",":|"],[".",".",".",".",".",".",".",".",2,2,2,2,2,2,2,2,null,"|",null,null,".",".",".",".",".",".",".",".",".",".",".",".",".",".",".",".",":|"],[".",".",".",".",".",".",".",".",".",".",".",".",".",".",".",".","|",null,null,null,4,4,4,4,4,4,4,4,2,2,2,2,2,2,2,2,":|"]],[[".",".",".",".",".",".",".",".",".",".",".",".",".",".",".",".",null,null,null,"|",".",".",".",".",".",".",".",".",".",".",".",".",".",".",".","."],[".",".",".",".",5,5,".",".",".",".",".",".",6,6,".",".",null,null,"|",null,9,9,".",".",".",".",".",".",9,9,".",".",".",".",".","."],[6,6,6,6,".",".",6,6,7,7,7,7,".",".",7,7,null,"|",null,null,".",".",11,11,9,9,11,11,".",".",11,11,9,9,11,11],[".",".",".",".",".",".",".",".",".",".",".",".",".",".",".",".","|",null,null,null,".",".",".",".",".",".",".",".",".",".",".",".",".",".",".","."]],[[".",".",".",".",".",".",".",".",".",".",".",".",".",".",".",".",null,null,null,"|",".",".",".",".",6,".",".",".",6,".",6,"_",".","_",".",null,null,null,"|"],[".",".",".",".",5,5,".",".",".",".",".",".",6,6,".",".",null,null,"|",null,4,4,4,4,".",4,4,4,".",4,".","_",".","_",".",null,null,"|"],[6,6,6,6,".",".",6,6,7,7,7,7,".",".",7,7,null,"|",null,null,".",".",".",".",".",".",".",".",".",".",".","_",".","_",".",null,"|"],[".",".",".",".",".",".",".",".",".",".",".",".",".",".",".",".","|",null,null,null,".",".",".",".",".",".",".",".",".",".",".","_",2,"_",2,"|"]],[[".",".",".",".",".",".",".",".",".",".",".",".",".",".",".",".",null,null,null,"|",".",".",".",".",".",".",".",".",".",".",".",".",".",".",".","."],[".",".",".",".",".",".",".",".",".",".",".",".",".",".",0,1,null,null,"|",null,2,2,2,2,2,2,2,1,".",".",".",".",".",".",0,1],[2,2,2,2,2,2,2,2,2,2,2,2,2,2,".",".",null,"|",null,null,".",".",".",".",".",".",".",".",2,2,2,2,2,2,".","."],[".",".",".",".",".",".",".",".",".",".",".",".",".",".",".",".","|",null,null,null,".",".",".",".",".",".",".",".",".",".",".",".",".",".",".","."]],[[".",".",".",".",".",".",".",".",".",".",".",".",".",".",".",".",null,null,null,"|",".",".",".",".",".",".",".",".",".",".",".",".",".",".",".",".",":|",".","."],[2,2,2,2,2,2,2,1,".",".",".",".",".",".",".",".",null,null,"|",null,".",".",".",".",".",".",".",".",".",".",".",".",".",".",".",".",":|",".","."],[".",".",".",".",".",".",".",".",2,2,2,2,2,2,2,2,null,"|",null,null,".",".",".",".",".",".",".",".",".",".",".",".",".",".",".",".",":|",2,2],[".",".",".",".",".",".",".",".",".",".",".",".",".",".",".",".","|",null,null,null,4,4,4,4,4,4,4,4,2,2,2,2,2,2,2,2,":|",".","."]],[[".",".",".",".",".",".",".",".",".",".",".",".",".",".",".",".",null,null,null,"|",".",".",".",".",".",".",".",".",".",".",".",".",".",".",".","."],[".",".",".",".",".",".",".",".",".",".",".",".",".",".",2,3,null,null,"|",null,4,4,4,4,4,4,4,3,".",".",".",".",".",".",2,3],[4,4,4,4,4,4,4,4,4,4,4,4,4,4,".",".",null,"|",null,null,".",".",".",".",".",".",".",".",4,4,4,4,4,4,".","."],[".",".",".",".",".",".",".",".",".",".",".",".",".",".",".",".","|",null,null,null,".",".",".",".",".",".",".",".",".",".",".",".",".",".",".","."]],[[".",".",".",".",".",".",".",".",".",".",".",".",".",".",".",".",null,null,null,"|",".",".",8,8,10,10,8,8,".",".",6,6,8,8,6,6],[4,4,4,4,4,4,4,3,".",".",3,3,4,4,6,6,null,null,"|",null,8,8,".",".",".",".",".",".",6,6,".",".",".",".",".","."],[".",".",".",".",".",".",".",".",4,4,".",".",".",".",".",".",null,"|",null,null,".",".",".",".",".",".",".",".",".",".",".",".",".",".",".","."],[".",".",".",".",".",".",".",".",".",".",".",".",".",".",".",".","|",null,null,null,".",".",".",".",".",".",".",".",".",".",".",".",".",".",".","."]],[[".",".",".",".",".",".",".",".",".",".",".",".",".",".",".",".",null,null,null,"|",".",".",".",".",".",".",".",".",".",".",".",".",".",".",".","."],[".",".",".",".",8,8,".",".",".",".",".",".",9,9,".",".",null,null,"|",null,".",".",".",".",".",".",".",".",11,11,".",".",".",".",".","."],[8,8,8,8,".",".",8,8,9,9,9,9,".",".",9,9,null,"|",null,null,11,11,13,13,11,11,13,13,".",".",13,13,11,11,13,13],[".",".",".",".",".",".",".",".",".",".",".",".",".",".",".",".","|",null,null,null,".",".",".",".",".",".",".",".",".",".",".",".",".",".",".","."]],[[".",".",".",".",".",".",".",".",".",".",".",".",".",".",".",".",null,null,null,"|",".",".",".",".",8,".",".",".",8,".",8,"_",".","_","."],[".",".",".",".",8,8,".",".",".",".",".",".",9,9,".",".",null,null,"|",null,6,6,6,6,".",6,6,6,".",6,".","_",".","_","."],[8,8,8,8,".",".",8,8,9,9,9,9,".",".",9,9,null,"|",null,null,".",".",".",".",".",".",".",".",".",".",".","_",".","_","."],[".",".",".",".",".",".",".",".",".",".",".",".",".",".",".",".","|",null,null,null,".",".",".",".",".",".",".",".",".",".",".","_",4,"_",4]],[[".","_","_","_","_","_",".",".",".",null,null,null,"|","_",".","_","_","_","_","_","_",".","_",".","_","."],[".","_","_","_","_","_",".",6,7,null,null,"|",null,"_",8,"_","_","_","_","_","_",6,"_",".","_","."],[4,"_","_","_","_","_",8,".",".",null,"|",null,null,"_",".","_","_","_","_","_","_",".","_",".","_","."],[".","_","_","_","_","_",".",".",".","|",null,null,null,"_",".","_","_","_","_","_","_",".","_",4,"_",4]],[[".",".",".",".",".",".",".",".",".",".",".",".",".",".",".",".",null,null,null,"|",".",".",".",".",".",".",".",".",".",".",".",".",".",".",".","."],[".",".",".",".",".",".",".",".",".",".",".",".",".",".",2,3,null,null,"|",null,4,4,4,4,4,4,4,3,".",".",".",".",".",".",2,3],[4,4,4,4,4,4,4,4,4,4,4,4,4,4,".",".",null,"|",null,null,".",".",".",".",".",".",".",".",4,4,4,4,4,4,".","."],[".",".",".",".",".",".",".",".",".",".",".",".",".",".",".",".","|",null,null,null,".",".",".",".",".",".",".",".",".",".",".",".",".",".",".","."]],[[".",".",".",".",".",".",".",".",".",".",".",".",".",".",".",".",null,null,null,"|",".",".",8,8,10,10,8,8,".",".",6,6,8,8,6,6],[4,4,4,4,4,4,4,3,".",".",3,3,4,4,6,6,null,null,"|",null,8,8,".",".",".",".",".",".",6,6,".",".",".",".",".","."],[".",".",".",".",".",".",".",".",4,4,".",".",".",".",".",".",null,"|",null,null,".",".",".",".",".",".",".",".",".",".",".",".",".",".",".","."],[".",".",".",".",".",".",".",".",".",".",".",".",".",".",".",".","|",null,null,null,".",".",".",".",".",".",".",".",".",".",".",".",".",".",".","."]],[[".",".",".",".",".",".",".",".",".",".",".",".",".",".",".",".",null,null,null,"|",".",".",".",".",".",".",".",".",".",".",".",".",".",".","."],[".",".",".",".",".",".",".",".",".",".",".",".",".",".",2,3,null,null,"|",null,4,4,4,4,4,4,3,".",".",".",".",".",".",2,3],[4,4,4,4,4,4,4,4,4,4,4,4,4,4,".",".",null,"|",null,null,".",".",".",".",".",".",".",4,4,4,4,4,4,".","."],[".",".",".",".",".",".",".",".",".",".",".",".",".",".",".",".","|",null,null,null,".",".",".",".",".",".",".",".",".",".",".",".",".",".","."]],[[".",".",".",".",".",".",".",".",".",".",".",".",".",".",".",".",null,null,null,"|",".",".",10,10,8,8,6,6,".",".",8,8,6,6,5,5],[4,4,4,4,4,4,4,3,".",".",3,3,4,4,6,6,null,null,"|",null,8,8,".",".",".",".",".",".",6,6,".",".",".",".",".","."],[".",".",".",".",".",".",".",".",4,4,".",".",".",".",".",".",null,"|",null,null,".",".",".",".",".",".",".",".",".",".",".",".",".",".",".","."],[".",".",".",".",".",".",".",".",".",".",".",".",".",".",".",".","|",null,null,null,".",".",".",".",".",".",".",".",".",".",".",".",".",".",".","."]],[[".",".",8,8,10,10,8,8,".",".",6,6,8,8,6,6,null,null,null,"|",".",".",10,10,8,8,6,6,".",".",8,8,".","_","."],[8,8,".",".",".",".",".",".",6,6,".",".",".",".",".",".",null,null,"|",null,8,8,".",".",".",".",".",".",6,6,".",".",".","_","."],[".",".",".",".",".",".",".",".",".",".",".",".",".",".",".",".",null,"|",null,null,".",".",".",".",".",".",".",".",".",".",".",".",".","_","."],[".",".",".",".",".",".",".",".",".",".",".",".",".",".",".",".","|",null,null,null,".",".",".",".",".",".",".",".",".",".",".",".",4,"_",4]],[[".","_","_","_","_","_"],[".","_","_","_","_","_"],[4,"_","_","_","_","_"],[".","_","_","_","_","_"]]],"numberofstrings":4,"notes":["G","D","A","E"],"capo":0,"stringnotes":["G2","D2","A1","E1"],"comments":["Stave 1:","Stave 2:","Stave 3:","Stave 4:","Stave 5:","Stave 6:","Stave 7:","Stave 8:","Stave 9:","Stave 10:","Stave 11:","Stave 12:","Stave 13:","Stave 14:","Stave 15:","Stave 16:","Stave 17:","Stave 18:","Stave 19:","Stave 20:","Stave 21:","Stave 22:","Stave 23:","Stave 24:","Stave 25:","Stave 26:","Stave 27:","Stave 28:","Stave 29:"],"timing":[["W","W","W","W","W","W","W","W","W","W","W","W","W","W","W","W",null,null,null,null,"W","W","W","W","W","W","W","W","W","W","W","W","W","W","W","W"],["W","W","W","W","W","W","W","W","W","W","W","W","W","W","W","W",null,null,null,null,"W","W","W","W","W","W","W","W","W","W","W","W","W","W"],["W","W","W","W","W","W","W","W","W","W","W","W","W","W","W","W",null,null,null,null,"W","W","W","W","W","W","W","W","W","W","W","W","W","W","W","W"],["W","W","W","W","W","W","W","W","W","W","W","W","W","W","W","W",null,null,null,null,"W","W","W","W","W","W","W","W","W","W","W","W","W","W","W","W"],["W","W","W","W","W","W","W","W","W","W","W","W","W","W","W","W",null,null,null,null,"W","W","W","W","W","W","W","W","W","W","W","W","W","W","W","W"],["W","W","W","W","W","W","W","W","W","W","W","W","W","W","W","W",null,null,null,null,"W","W","W","W","W","W","W","W","W","W","W","W","W","W","W","W"],["W","W","W","W","W","W","W","W","W","W","W","W","W","W","W","W",null,null,null,null,"W","W","W","W","W","W","W","W","W","W","W","W","W","W","W","W"],["W","W","W","W","W","W","W","W","W","W","W","W","W","W","W","W",null,null,null,null,"W","W","W","W","W","W","W","W","W","W","W","W","W","W","W"],["W","W","W","W","W","W","W","W","W","W","W","W","W","W","W","W",null,null,null,null,"W","W","W","W","W","W","W","W","W","W","W","W","W","W","W","W"],["W","W","W","W","W","W","W","W","W","W","W","W","W","W","W","W",null,null,null,null,"W","W","W","W","W","W","W","W","W","W","W","W","W","W","W","W"],["W","W","W","W","W","W","W","W","W","W","W","W","W","W","W","W",null,null,null,null,"W","W","W","W","W","W","W","W","W","W","W","W","W","W","W","W"],["W","W","W","W","W","W","W","W","W","W","W","W","W","W","W","W",null,null,null,null,"W","W","W","W","W","W","W","W","W","W","W","W","W","W","W","W"],["W","W","W","W","W","W","W","W","W","W","W","W","W","W","W","W",null,null,null,null,"W","W","W","W","W","W","W","W","W","W","W","W","W","W","W","W"],["W","W","W","W","W","W","W","W","W","W","W","W","W","W","W","W",null,null,null,null,"W","W","W","W","W","W","W","W","W","W","W","W","W","W","W","W"],["W","W","W","W","W","W","W","W","W","W","W","W","W","W","W","W",null,null,null,null,"W","W","W","W","W","W","W","W","W","W","W","W","W","W","W","W"],["W","W","W","W","W","W","W","W","W","W","W","W","W","W","W","W",null,null,null,null,"W","W","W","W","W","W","W","W","W","W","W","W","W","W","W"],["W","W","W","W","W","W","W","W","W","W","W","W","W","W","W","W",null,null,null,null,"W","W","W","W","W","W","W","W","W","W","W","W","W","W","W","W"],["W","W","W","W","W","W","W","W","W","W","W","W","W","W","W","W",null,null,null,null,"W","W","W","W","W","W","W","W","W","W","W","W","W","W","W","W",null,"W","W"],["W","W","W","W","W","W","W","W","W","W","W","W","W","W","W","W",null,null,null,null,"W","W","W","W","W","W","W","W","W","W","W","W","W","W","W","W"],["W","W","W","W","W","W","W","W","W","W","W","W","W","W","W","W",null,null,null,null,"W","W","W","W","W","W","W","W","W","W","W","W","W","W","W","W"],["W","W","W","W","W","W","W","W","W","W","W","W","W","W","W","W",null,null,null,null,"W","W","W","W","W","W","W","W","W","W","W","W","W","W","W","W"],["W","W","W","W","W","W","W","W","W","W","W","W","W","W","W","W",null,null,null,null,"W","W","W","W","W","W","W","W","W","W","W","W","W","W","W"],["W","W","W","W","W","W","W","W","W",null,null,null,null,"W","W","W","W","W","W","W","W","W","W","W","W","W"],["W","W","W","W","W","W","W","W","W","W","W","W","W","W","W","W",null,null,null,null,"W","W","W","W","W","W","W","W","W","W","W","W","W","W","W","W"],["W","W","W","W","W","W","W","W","W","W","W","W","W","W","W","W",null,null,null,null,"W","W","W","W","W","W","W","W","W","W","W","W","W","W","W","W"],["W","W","W","W","W","W","W","W","W","W","W","W","W","W","W","W",null,null,null,null,"W","W","W","W","W","W","W","W","W","W","W","W","W","W","W"],["W","W","W","W","W","W","W","W","W","W","W","W","W","W","W","W",null,null,null,null,"W","W","W","W","W","W","W","W","W","W","W","W","W","W","W","W"],["W","W","W","W","W","W","W","W","W","W","W","W","W","W","W","W",null,null,null,null,"W","W","W","W","W","W","W","W","W","W","W","W","W","W","W"],["W","W","W","W","W","W"]],"timingvisible":false,"tabcounter":6,"stave":28,"totalstaves":29,"instrument":"4bass","selectedtuning":"4bass","version":"13"}

Member for

3 months 1 week
Submitted by cssling69@gmail.com on Wed, 2021-10-06 12:36