Good Things - A Wake

Chords

01234567891011121314151617181920212223
E
B
G
D
A
E
B
0 1 2 3 4 5 6 7 8 9 10 11 12 13 14 15 16 17 18 19 20 21 22 23
(/) Slide Up  (\) Slide Down  (h) Hammer On  (p) Pull Off  (b) Bend (r) Release (v) Vibrato

INTRO - GUITAR 1 (LEAD)

E|------------------------------------------
B|------------------------------------------
G|--------------13--11-----9--11--9---------
D|------11---------------------------11--9--
A|--12------12------------------------------
D|------------------------------------------

INTRO - GUITAR 2 (RHYTHM) 

E|---------
B|---------
G|--14-----
D|--14-----
A|--12-----
D|---------

VERSE - GUITARS 1 & 2

E|-----------------------------------------------------------------------------------------------------------------------
B|-----------------------------------------------------------------------------------------------------------------------
G|--14--14--14--14-----14--x--14-----14--14-14--14--14-14--14--14-----------9--9--9--9-----9--x--9-----9--9-11--11-9-----
D|--14--14--14--14-----14--x--14-----14--14-14--14--14-14--14--14-----------9--9--9--9-----9--x--9-----9--9-11--11-9-----
A|--12--12--12--12-----12--x--12-----12--12-11--11--11-12--12--12-----------7--7--7--7-----7--x--7-----7--7-9---9--7-----
D|--12--12--12--12-----12--x--12-----12--12-11--11--11-12--12--12-----------7--7--7--7-----7--x--7-----7--7-9---9--7-----

CHORUS - GUITAR 1

E|------------------------------------------------------------------------------------------
B|-------------------------------5--7--5-----5--7--5----------------------------------------
G|--12--------11--------9-----------------7-----------7-----12--------11--------9--------7--
D|--x---------x---------x-----------------------------------x---------x---------x--------x--
A|--10--------9---------7-----------------------------------10--------9---------7--------5--
D|------------------------------------------------------------------------------------------

CHORUS - GUITAR 2

E|-----------------------------------------------------------------------------
B|-----------------------------------------------------------------------------
G|--7--------7--------7--------7--7--7--7--7--7-----------7--------7--------7--
D|--7--------7--------7--------7--7--7--7--7--7-----------7--------7--------7--
A|--5--------0--------x--------5--5--5--5--5--5-----------5--------0--------x--
D|--5--------0--------7-----------------------------------5--------0--------7--

							http://www.guitartabcreator.com
Instruments
{"strings":[[[".",".",".",".",".",".",".",".",".",".","."],[".",".",".",".",".",".",".",".",".",".","."],[".",".",".",13,11,".",9,11,9,".","."],[".",11,".",".",".",".",".",".",".",11,9],[12,".",12,".",".",".",".",".",".",".","."],[".",".",".",".",".",".",".",".",".",".","."]],[[".","."],[".","."],[14,"."],[14,"."],[12,"."],[".","."]],[[".",".",".",".",".",".",".",".",".",".",".",".",".",".",".",".",".",".",".",".",".",".",".",".",".",".",".",".",".",".",".",".",".",".",".",".",".",".","."],[".",".",".",".",".",".",".",".",".",".",".",".",".",".",".",".",".",".",".",".",".",".",".",".",".",".",".",".",".",".",".",".",".",".",".",".",".",".","."],[14,14,14,14,".",14,"x",14,".",14,14,".",14,14,14,".",14,14,14,".",".",".",9,9,9,9,".",9,"x",9,".",9,9,"/",11,11,"\\",9,"."],[14,14,14,14,".",14,"x",14,".",14,14,".",14,14,14,".",14,14,14,".",".",".",9,9,9,9,".",9,"x",9,".",9,9,"/",11,11,"\\",9,"."],[12,12,12,12,".",12,"x",12,".",12,12,"\\",11,11,11,"/",12,12,12,".",".",".",7,7,7,7,".",7,"x",7,".",7,7,"/",9,9,"\\",7,"."],[12,12,12,12,".",12,"x",12,".",12,12,"\\",11,11,11,"/",12,12,12,".",".",".",7,7,7,7,".",7,"x",7,".",7,7,"/",9,9,"\\",7,"."]],[[".",".",".",".",".",".",".",".",".",".",".",".",".",".",".",".",".",".",".",".",".",".",".",".",".",".",".","."],[".",".",".",".",".",".",".",".",".",5,7,5,".",5,7,5,".",".",".",".",".",".",".",".",".",".",".","."],[12,".",".",11,".",".",9,".",".",".",".",".",7,".",".",".",7,".",12,".",".",11,".",".",9,".",".",7],["x",".",".","x",".",".","x",".",".",".",".",".",".",".",".",".",".",".","x",".",".","x",".",".","x",".",".","x"],[10,".",".",9,".",".",7,".",".",".",".",".",".",".",".",".",".",".",10,".",".",9,".",".",7,".",".",5],[".",".",".",".",".",".",".",".",".",".",".",".",".",".",".",".",".",".",".",".",".",".",".",".",".",".",".","."]],[[".",".",".",".",".",".",".",".",".",".",".",".",".",".",".",".",".",".",".",".",".",".",".",".","."],[".",".",".",".",".",".",".",".",".",".",".",".",".",".",".",".",".",".",".",".",".",".",".",".","."],[7,".",".",7,".",".",7,".",".",7,7,7,7,7,7,".",".",".",7,".",".",7,".",".",7],[7,".",".",7,".",".",7,".",".",7,7,7,7,7,7,".",".",".",7,".",".",7,".",".",7],[5,".",".",0,".",".","x",".",".",5,5,5,5,5,5,".",".",".",5,".",".",0,".",".","x"],[5,".",".",0,".",".",7,".",".",".",".",".",".",".",".",".",".",".",5,".",".",0,".",".",7]]],"numberofstrings":6,"notes":["E","B","G","D","A","D"],"capo":0,"stringnotes":["E3","B2","G2","D2","A1","D1"],"comments":["INTRO - GUITAR 1 (LEAD)","INTRO - GUITAR 2 (RHYTHM) ","VERSE - GUITARS 1 & 2","CHORUS - GUITAR 1","CHORUS - GUITAR 2"],"timing":[[null,null,null,null,null,null,null,null,null,null,null,null],[null,"W"],[null,"W","W","W","W",null,"W","W","W",null,"W","W",null,"W",null,"W",null,"W","W","W",null,null,null,"W","W","W","W",null,"W","W","W",null,"W","W",null,"W","W",null,"W","W","W"],[null,"W",null,null,null,"W",null,"W",null,null,"W","W","W","W","W","W","W","W",null,"W",null,"W","W",null,null,"W",null,null,"W"],[null,"W",null,null,"W",null,null,"W",null,null,"W","W",null,"W","W","W",null,null,null,"W",null,null,"W",null,null,"W"]],"timingvisible":false,"tabcounter":25,"stave":4,"totalstaves":5,"instrument":"6guitar","selectedtuning":"Drop D","version":"13"}

Member for

2 years 5 months
Submitted by csacchet on Sat, 2020-09-12 16:32