F blues chords

Chords

01234567891011121314151617181920212223
E
B
G
D
A
E
B
0 1 2 3 4 5 6 7 8 9 10 11 12 13 14 15 16 17 18 19 20 21 22 23
(/) Slide Up  (\) Slide Down  (h) Hammer On  (p) Pull Off  (b) Bend (r) Release (v) Vibrato

F7

E|--1-----------
B|-----1--------
G|--------2-----
D|-----------1--
A|--------------
E|--------------

Bb7

E|--6-----------
B|-----6--------
G|--------7-----
D|-----------6--
A|--------------
E|--------------

C7

E|--8-----------
B|-----8--------
G|--------9-----
D|-----------8--
A|--------------
E|--------------

							http://www.guitartabcreator.com
Instruments
{"strings":[[[1,".",".","."],[".",1,".","."],[".",".",2,"."],[".",".",".",1],[".",".",".","."],[".",".",".","."]],[[6,".",".","."],[".",6,".","."],[".",".",7,"."],[".",".",".",6],[".",".",".","."],[".",".",".","."]],[[8,".",".","."],[".",8,".","."],[".",".",9,"."],[".",".",".",8],[".",".",".","."],[".",".",".","."]]],"numberofstrings":6,"notes":["E","B","G","D","A","E","B"],"capo":0,"stringnotes":["E4","B3","G3","D3","A2","E2"],"comments":["F7","Bb7","C7"],"timing":[["W","W","W","W"],["W","W","W","W"],["W","W","W","W"]],"timingvisible":false,"tabcounter":4,"stave":2,"totalstaves":3,"instrument":"6guitar","selectedtuning":"6_standard","version":"13"}

Member for

3 weeks 3 days
Submitted by CS on Fri, 2020-11-20 13:29