Sound will begin in 5 seconds

Every Other Day

Chords
01234567891011121314151617181920212223
E
B
G
D
A
E
B
0 1 2 3 4 5 6 7 8 9 10 11 12 13 14 15 16 17 18 19 20 21 22 23
(/) Slide Up  (\) Slide Down  (h) Hammer On  (p) Pull Off  (b) Bend (r) Release (v) Vibrato

Stave 1:

E|--------------------------------------------------------------------------------------------------
B|--------------------------------------------------------------------------------------------------
G|--------------------------------------------------------------------------------------------------
D|------15--18------15--18------15--18------15--18------13--16------13--16------13--16------13--16--
A|--16----------16----------16----------16----------14----------14----------14----------14----------
E|--------------------------------------------------------------------------------------------------

Stave 2:

E|--------------------------------------------------------------------------------------------------
B|--------------------------------------------------------------------------------------------------
G|--------------------------------------------------------------------------------------------------
D|------15--18------15--18------15--18------15--18------17--20------17--20------15--18------15--18--
A|--16----------16----------16----------16----------18----------18----------16----------16----------
E|--------------------------------------------------------------------------------------------------

Stave 3:

E|--------------------------------------------------
B|--------------------------------------------------
G|--------------------------------------------------
D|------13--16------13--16------13--16------13--16--
A|--14----------14----------14----------14----------
E|--------------------------------------------------

Stave 4:

E|----------------------------------------------
B|----------------------------------------------
G|----------------------------------------------
D|--14--14--14--14--14--14--11--11--9--9--9--9--
A|--0---0---0---0---0---0---0---0---0--0--0--0--
E|----------------------------------------------

Stave 5:

E|----------------------------------------------------------------
B|----------------------------------------------------------------
G|----------------------------------------------------------------
D|--14--14--14--14--14--14--11--11--9--9--9--9--6--6--4--4--4--9--
A|--0---0---0---0---0---0---0---0---0--0--0--0--0--0--0--0--0--0--
E|----------------------------------------------------------------

http://www.guitartabcreator.com
Guitar Tab Creator is intended to store guitar tab created through the tool. It currently does not support in-line text editing. Any text you place in here will be lost. If you need to comment on your tab, please use the "Tab Notes" section located below.