Tanjirou no Uta

Chords

01234567891011121314151617181920212223
E
B
G
D
A
E
B
0 1 2 3 4 5 6 7 8 9 10 11 12 13 14 15 16 17 18 19 20 21 22 23
(/) Slide Up  (\) Slide Down  (h) Hammer On  (p) Pull Off  (b) Bend (r) Release (v) Vibrato

Stave 1:

E|--1--5--0-----------------1--5--0--------------10--
B|--------------3-----------------------3------------
G|---------------------------------------------------
D|---------------------------------------------------
A|--------------------1------------------------------
E|---------------------------------------------------

Stave 2:

E|--1--0--1--5--0--------------1--5-----6--5--6--10--5-----3--1--3-----5--
B|--------------------3--1--3---------------------------------------3-----
G|------------------------------------------------------------------------
D|------------------------------------------------------------------------
A|------------------------------------------------------------------------
E|------------------------------------------------------------------------

Stave 3:

E|--1--0--1--5--0--------------1--5-----6--5--6--10--5-----3--1--3-----5--
B|--------------------3--1--3---------------------------------------3-----
G|------------------------------------------------------------------------
D|------------------------------------------------------------------------
A|------------------------------------------------------------------------
E|------------------------------------------------------------------------

Stave 4:

E|--0--1--5--0--------------------0--1--5--8-----
B|-----------------3--------3--------------------
G|-----------------------------------------------
D|-----------------------------------------------
A|-----------------------------------------------
E|-----------------------------------------------

Stave 5:

E|--5--1--0-----5--1--0--------1-----1--3--5--5--1--1--------1--3--8--
B|--------------------------------3-----------------------------------
G|-----------2-----------2--------------------------------------------
D|-----------------------------------------------------3--3-----------
A|--------------------------------------------------------------------
E|--------------------------------------------------------------------

Stave 6:

E|--1--5--0--
B|-----------
G|-----------
D|-----------
A|-----------
E|-----------

							http://www.guitartabcreator.com
Instruments
{"strings":[[[1,5,0,".","_","_",".","_",1,5,0,"_",".","_","_",10],[".",".",".",".",3,"_",".","_",".",".",".","_",3,"_","_","."],[".",".",".",".","_","_",".","_",".",".",".","_",".","_","_","."],[".",".",".",".","_","_",".","_",".",".",".","_",".","_","_","."],[".",".",".",".","_","_",1,"_",".",".",".","_",".","_","_","."],[".",".",".",".","_","_",".","_",".",".",".","_",".","_","_","."]],[[1,0,1,5,0,"_",".",".",".",1,5,"_",6,5,6,10,5,"_",3,1,3,".",5],[".",".",".",".",".","_",3,1,3,".",".","_",".",".",".",".",".","_",".",".",".",3,"."],[".",".",".",".",".","_",".",".",".",".",".","_",".",".",".",".",".","_",".",".",".",".","."],[".",".",".",".",".","_",".",".",".",".",".","_",".",".",".",".",".","_",".",".",".",".","."],[".",".",".",".",".","_",".",".",".",".",".","_",".",".",".",".",".","_",".",".",".",".","."],[".",".",".",".",".","_",".",".",".",".",".","_",".",".",".",".",".","_",".",".",".",".","."]],[[1,0,1,5,0,"_",".",".",".",1,5,"_",6,5,6,10,5,"_",3,1,3,".",5],[".",".",".",".",".","_",3,1,3,".",".","_",".",".",".",".",".","_",".",".",".",3,"."],[".",".",".",".",".","_",".",".",".",".",".","_",".",".",".",".",".","_",".",".",".",".","."],[".",".",".",".",".","_",".",".",".",".",".","_",".",".",".",".",".","_",".",".",".",".","."],[".",".",".",".",".","_",".",".",".",".",".","_",".",".",".",".",".","_",".",".",".",".","."],[".",".",".",".",".","_",".",".",".",".",".","_",".",".",".",".",".","_",".",".",".",".","."]],[[0,1,5,0,"_",".","_","_",".","_",0,1,5,8,"_"],[".",".",".",".","_",3,"_","_",3,"_",".",".",".",".","_"],[".",".",".",".","_",".","_","_",".","_",".",".",".",".","_"],[".",".",".",".","_",".","_","_",".","_",".",".",".",".","_"],[".",".",".",".","_",".","_","_",".","_",".",".",".",".","_"],[".",".",".",".","_",".","_","_",".","_",".",".",".",".","_"]],[[5,1,0,".",5,1,0,".","_",1,".",1,3,5,5,1,1,".",".",1,3,8],[".",".",".",".",".",".",".",".","_",".",3,".",".",".",".",".",".",".",".",".",".","."],[".",".",".",2,".",".",".",2,"_",".",".",".",".",".",".",".",".",".",".",".",".","."],[".",".",".",".",".",".",".",".","_",".",".",".",".",".",".",".",".",3,3,".",".","."],[".",".",".",".",".",".",".",".","_",".",".",".",".",".",".",".",".",".",".",".",".","."],[".",".",".",".",".",".",".",".","_",".",".",".",".",".",".",".",".",".",".",".",".","."]],[[1,5,0],[".",".","."],[".",".","."],[".",".","."],[".",".","."],[".",".","."]]],"numberofstrings":6,"notes":["E","B","G","D","A","E","B"],"capo":0,"stringnotes":["E4","B3","G3","D3","A2","E2"],"comments":["Stave 1:","Stave 2:","Stave 3:","Stave 4:","Stave 5:","Stave 6:"],"timing":[["W","W","W",null,null,"W","W","W","W","W","W","W","W",null,null,"W"],["W","W","W","W","W","W","W","W","W","W","W",null,"W","W","W","W","W",null,"W","W","W","W","W"],["W","W","W","W","W",null,"W","W","W","W","W",null,"W","W","W","W","W",null,"W","W","W","W","W"],["W","W","W","W",null,"W",null,null,"W",null,"W","W","W","W"],["W","W","W","W","W","W","W","W",null,"W","W","W","W","W","W","W","W","W","W","W","W","W"],["W","W","W"]],"timingvisible":false,"tabcounter":3,"stave":5,"totalstaves":6,"instrument":"6guitar","selectedtuning":"6_standard","version":"13"}

Member for

2 months 3 weeks
Submitted by crvalenzue on Mon, 2020-08-10 08:47