Sound will begin in 5 seconds

Air

Chords
01234567891011121314151617181920212223
E
B
G
D
A
E
B
0 1 2 3 4 5 6 7 8 9 10 11 12 13 14 15 16 17 18 19 20 21 22 23
Song Science #1: How Pros Use 6 Chords to Write Hit Songs
(/) Slide Up  (\) Slide Down  (h) Hammer On  (p) Pull Off  (b) Bend (r) Release (v) Vibrato

Stave 1:

E|---------|---------|---------|---------|-
B|-3-------|-3-------|---------|---------|-
G|---------|---------|-4-------|-2-------|-
D|-0-0-----|---------|-----2---|---------|-
A|-----4-4-|-2-2-0-0-|---------|-0-0-----|-
E|---------|---------|-3-3-4-4-|-----3-3-|-

Stave 2:

E|---------3-5---|---------|---------2-3---|---------|-
B|---1-0-1-------|---------|---5-3-5-----5-|---------|-
G|---------------|-4-------|---------------|-2-------|-
D|-------------5-|---------|-2-2---0---0---|---------|-
A|---------------|-6-6-2-2-|---------------|-4-4-0-0-|-
E|-2-2---0-0-----|---------|---------------|---------|-

Stave 3:

E|---------|-----------|---------|---|---------------|-
B|-3-------|-------0---|---------|---|---------------|-
G|---------|---1-2---1-|-2-2---1-|---|---------------|-
D|-0-0-----|-----------|-----2---|---|-------2-5-4-2-|-
A|-----4-4-|-2-2-------|-0-0-----|---|-2-4-5---------|-
E|---------|-------4-0-|-------0-|-0-|---------------|-

Stave 4:

E|---------|---------------|---------|-0-------|-
B|-2-------|---0-1---0-----|-------4-|-0-------|-
G|-2-------|-----------2-0-|-4-------|---------|-
D|---------|-----------2---|-----4---|-2-2-0-0-|-
A|-0-0-----|---------------|-6-6---2-|---------|-
E|-----3-3-|-2---2-0-------|---------|---------|-

Stave 5:

E|---------|---------------|---------|---------|-
B|-5-------|---3-2-0---0-2-|---------|-3-------|-
G|---------|---------3-----|-------3-|-4-------|-
D|---------|---------------|-----2---|---------|-
A|-4-4-2-2-|-1---2---4---1-|-2-2---4-|-2-2-0-0-|-
E|---------|---------------|---------|---------|-

Stave 6:

E|---------|-------------|---------|---------|-
B|---------|-------------|---------|---------|-
G|---------|-1-----1-2-4-|---2---1-|-2-------|-
D|---------|---2-4-0---0-|-----0---|---------|-
A|---------|-------------|-4-4---2-|-0-0-----|-
E|-4-4-2-2-|-0-0---------|---------|-----3-3-|-

Stave 7:

E|-------------|-------------|-------------|-------------|-
B|---0-1-0-2-3-|---2-0---3-5-|-----------7-|-------------|-
G|-------------|-------6-----|---8-6-8-9---|---8-9-------|-
D|-------------|-------------|-------------|-------9-----|-
A|-------------|-------------|-------------|-----7---5-5-|-
E|-2-2---3---3-|-4-4---5---5-|-6-6---7---7-|-0-----------|-

Stave 8:

E|-----------|-----------|---------|---------|-
B|-----------|---2-3-----|---------|---------|-
G|---6---6---|-----------|---------|---------|-
D|-----7-----|-0-0-------|---2-4---|---------|-
A|-4-4---0-0-|-------3-3-|-2-2-0-0-|---------|-
E|-----------|-----------|---------|-3-3-2-2-|-

Stave 9:

E|---------|-------------|-------------|-
B|-----5---|---3---------|-------------|-
G|-0-4-----|-----6-4-2-4-|-------------|-
D|---2-0-0-|---------0---|-----5-4-5-4-|-
A|---------|-4---0-------|-0---0-----5-|-
E|-0-------|-----------3-|---2---------|-

http://www.guitartabcreator.com
Guitar Tab Creator is intended to store guitar tab created through the tool. It currently does not support in-line text editing. Any text you place in here will be lost. If you need to comment on your tab, please use the "Tab Notes" section located below.