exinhale

Chords

01234567891011121314151617181920212223
E
B
G
D
A
E
B
0 1 2 3 4 5 6 7 8 9 10 11 12 13 14 15 16 17 18 19 20 21 22 23
(/) Slide Up  (\) Slide Down  (h) Hammer On  (p) Pull Off  (b) Bend (r) Release (v) Vibrato

Stave 1:

E|----3----3----1----1----3----3----5----5-
B|----3----3----1----1----3----3----6----6-
G|----3----3----2----2----3----3----7----7-
D|----5----5----3----3----5----5----7----7-
A|----5----5----3----3----5----5----5----5-
E|----3----3----1----1----3----3-----------

Stave 2:

E|-----------------------------------
B|-----------------------------------
G|-----------------------------------
D|-----------------------------------
A|-----------------------------3h5---
E|-3-3-1-3-1-1-1-3-3-3-1-3-3/6-----6-

Stave 3:

E|------------------
B|-5p3--------------
G|-----5----3-5-3-5-
D|------------------
A|------------------
E|------------------

Stave 4:

E|-6----3----6----1------
B|-6----3----8----1------
G|-7----3----8----2------
D|-8----5----8----3------
A|-8----5----6----3------
E|-6----3---------1----3-

Stave 5:

E|-------------------------------
B|-------------------------------
G|-8-8-7-------------------------
D|-------8-7-8-7-8-5-7-5-7-3-5-7-
A|-------------------------------
E|-------------------------------

							http://www.guitartabcreator.com
Instruments
{"strings":[[["_",3,"_",3,"_",1,"_",1,"_",3,"_",3,"_",5,"_",5],["_",3,"_",3,"_",1,"_",1,"_",3,"_",3,"_",6,"_",6],["_",3,"_",3,"_",2,"_",2,"_",3,"_",3,"_",7,"_",7],["_",5,"_",5,"_",3,"_",3,"_",5,"_",5,"_",7,"_",7],["_",5,"_",5,"_",3,"_",3,"_",5,"_",5,"_",5,"_",5],["_",3,"_",3,"_",1,"_",1,"_",3,"_",3,"_",".","_","."]],[[".",".",".",".",".",".",".",".",".",".",".",".",".",".",".",".",".",".","."],[".",".",".",".",".",".",".",".",".",".",".",".",".",".",".",".",".",".","."],[".",".",".",".",".",".",".",".",".",".",".",".",".",".",".",".",".",".","."],[".",".",".",".",".",".",".",".",".",".",".",".",".",".",".",".",".",".","."],[".",".",".",".",".",".",".",".",".",".",".",".",".",".",".",3,"h",5,"."],[3,3,1,3,1,1,1,3,3,3,1,3,3,"/",6,".",".",".",6]],[[".",".",".",".","_",".",".",".","."],[5,"p",3,".","_",".",".",".","."],[".",".",".",5,"_",3,5,3,5],[".",".",".",".","_",".",".",".","."],[".",".",".",".","_",".",".",".","."],[".",".",".",".","_",".",".",".","."]],[[6,"_",3,"_",6,"_",1,"_","."],[6,"_",3,"_",8,"_",1,"_","."],[7,"_",3,"_",8,"_",2,"_","."],[8,"_",5,"_",8,"_",3,"_","."],[8,"_",5,"_",6,"_",3,"_","."],[6,"_",3,"_",".","_",1,"_",3]],[[".",".",".",".",".",".",".",".",".",".",".",".",".",".","."],[".",".",".",".",".",".",".",".",".",".",".",".",".",".","."],[8,8,7,".",".",".",".",".",".",".",".",".",".",".","."],[".",".",".",8,7,8,7,8,5,7,5,7,3,5,7],[".",".",".",".",".",".",".",".",".",".",".",".",".",".","."],[".",".",".",".",".",".",".",".",".",".",".",".",".",".","."]]],"numberofstrings":6,"notes":["E","B","G","D","A","E","B"],"capo":0,"stringnotes":["E4","B3","G3","D3","A2","E2"],"comments":["Stave 1:","Stave 2:","Stave 3:","Stave 4:","Stave 5:"],"timing":[[null,"W","W","W","W","W","W","W",null,"W",null,"W",null,"W",null,"W"],["W","W","W","W","W","W","W","W","W","W","W","W","W",null,"W","W",null,"W","W"],["W",null,"W","W","W","W","W","W","W"],["W",null,"W",null,"W",null,"W",null,"W"],["W","W","W","W","W","W","W","W","W","W","W","W","W","W","W"]],"timingvisible":false,"tabcounter":15,"stave":4,"totalstaves":5,"instrument":"6guitar","selectedtuning":"6_standard","version":"13"}

Member for

1 month 1 week
Submitted by cRusty on Tue, 2020-09-22 01:19