Todo el calor

Chords

01234567891011121314151617181920212223
E
B
G
D
A
E
B
0 1 2 3 4 5 6 7 8 9 10 11 12 13 14 15 16 17 18 19 20 21 22 23
(/) Slide Up  (\) Slide Down  (h) Hammer On  (p) Pull Off  (b) Bend (r) Release (v) Vibrato

Stave 1:

E|------------------------------|-----------------------|--
B|------------------------------|--5--------------------|--
A|--3--3--6--7------3--3--5--0--|--2--------------------|--
D|--7--7--9--10-----7--7--4--3--|--3--------------------|--
A|--0--0--0--0------0--0--0--0--|--0--------------------|--
E|------------------------------|-----------------------|--

Stave 2:

E|--5--4--9--0------5--4--------------|--
B|--5--3--7--10-----5--3--3--3--------|--
A|--0--0--0--11-----0--0--0--0--0-----|--
D|--5--3--7--11-----5--3--3--3--3-----|--
A|--0--0--0--0------0--0--3--2--0-----|--
E|------------------------------------|--

							http://www.guitartabcreator.com
Instruments
{"strings":[[[".",".",".",".","_",".",".",".",".","|",".","_","_","_","_","_","_","|"],[".",".",".",".","_",".",".",".",".","|",5,"_","_","_","_","_","_","|"],[3,3,6,7,"_",3,3,5,0,"|",2,"_","_","_","_","_","_","|"],[7,7,9,10,"_",7,7,4,3,"|",3,"_","_","_","_","_","_","|"],[0,0,0,0,"_",0,0,0,0,"|",0,"_","_","_","_","_","_","|"],[".",".",".",".","_",".",".",".",".","|",".","_","_","_","_","_","_","|"]],[[5,4,9,0,"_",5,4,".",".",".","_","|"],[5,3,7,10,"_",5,3,3,3,".","_","|"],[0,0,0,11,"_",0,0,0,0,0,"_","|"],[5,3,7,11,"_",5,3,3,3,3,"_","|"],[0,0,0,0,"_",0,0,3,2,0,"_","|"],[".",".",".",".","_",".",".",".",".",".","_","|"]]],"numberofstrings":6,"notes":["E","B","A","D","A","E","B"],"capo":0,"stringnotes":["E4","B3","A3","D3","A2","E2"],"comments":["Stave 1:","Stave 2:"],"timing":[[null,null,null,null,null,null,null,null,"W","W","W","W","W"],["W","W","W","W",null,"W","W","W","W","W"]],"timingvisible":false,"tabcounter":12,"stave":1,"totalstaves":2,"instrument":"6guitar","selectedtuning":"6_standard","version":"13"}

Member for

1 week 2 days
Submitted by cruclax on Sat, 2020-10-17 12:12