Sound will begin in 5 seconds

second lick

01234567891011121314151617181920212223
E
B
G
D
A
E
B
0 1 2 3 4 5 6 7 8 9 10 11 12 13 14 15 16 17 18 19 20 21 22 23
Song Science #1: How Pros Use 6 Chords to Write Hit Songs
(/) Slide Up  (\) Slide Down  (h) Hammer On  (p) Pull Off  (b) Bend (r) Release (v) Vibrato

Stave 1:

E|--------------------------------------------------
B|-----------------6--7--9----------14----------17--
G|-----------8--6-----------12--13------15--16------
D|--6--7--9-----------------------------------------
A|--------------------------------------------------
E|--------------------------------------------------

Stave 2:

E|------15--13--12--------------------------
B|--16--------------11--12--14--------------
G|------------------------------11--12--14--
D|------------------------------------------
A|------------------------------------------
E|------------------------------------------

Stave 3:

E|----------11--13--11--13--------------------------
B|--11--13------------------11--13------------------
G|----------------------------------10--12--10--12--
D|--------------------------------------------------
A|--------------------------------------------------
E|--------------------------------------------------

Stave 4:

E|-------------------------------------------------------------------------------------------------
B|--9--10--12----------------------9--11---------------------------9--11------------11--12---------
G|-------------11--13---------------------9--11---------------------------9--11-------------9--11--
D|---------------------12--14--15----------------9-------------------------------9-----------------
A|--------------------------------------------------11--12--9--11----------------------------------
E|-------------------------------------------------------------------------------------------------

http://www.guitartabcreator.com
Guitar Tab Creator is intended to store guitar tab created through the tool. It currently does not support in-line text editing. Any text you place in here will be lost. If you need to comment on your tab, please use the "Tab Notes" section located below.