Sound will begin in 5 seconds

crowblades first lick

01234567891011121314151617181920212223
E
B
G
D
A
E
B
0 1 2 3 4 5 6 7 8 9 10 11 12 13 14 15 16 17 18 19 20 21 22 23
Song Science #1: How Pros Use 6 Chords to Write Hit Songs
(/) Slide Up  (\) Slide Down  (h) Hammer On  (p) Pull Off  (b) Bend (r) Release (v) Vibrato

Stave 1:

E|-7-9-----------------------------
B|-----8-10------------------------
G|----------9-11-------------------
D|---------------10-12-------------
A|---------------------11-13-------
E|---------------------------12-14-

Stave 2:

E|-----------------------------------
B|-------------------------13--------
G|----------------------12----14-13v-
D|-------------12-13-14--------------
A|----------13-----------------------
E|-12-14-15--------------------------

Stave 3:

E|----------12-15-14---------------
B|----13-14----------13------------
G|-12-------------------12-14v-----
D|-----------------------------13v-
A|---------------------------------
E|---------------------------------

Stave 4:

E|-17-18-19-20----------------------------------------------------------------
B|-------------17-18-19-20----------------------------------------------------
G|-------------------------17-18-19-20-16-------------------------------------
D|----------------------------------------17-16-18-19-20----------------------
A|-------------------------------------------------------18-20-19-------------
E|----------------------------------------------------------------19-18-20-20-

Stave 5:

E|-9-11-12----------------------------------
B|------------------------------------------
G|---------12-14-15-17----------------------
D|------------------------------10-12-13-15-
A|---------------------17-19-20-------------
E|------------------------------------------

http://www.guitartabcreator.com
Guitar Tab Creator is intended to store guitar tab created through the tool. It currently does not support in-line text editing. Any text you place in here will be lost. If you need to comment on your tab, please use the "Tab Notes" section located below.