Sound will begin in 5 seconds

Tears in Heaven By Eric Turner and Caleb Rocconi

Chords
01234567891011121314151617181920212223
E
B
G
D
A
E
B
0 1 2 3 4 5 6 7 8 9 10 11 12 13 14 15 16 17 18 19 20 21 22 23
Song Science #1: How Pros Use 6 Chords to Write Hit Songs
(/) Slide Up  (\) Slide Down  (h) Hammer On  (p) Pull Off  (b) Bend (r) Release (v) Vibrato

Stave 1:

E|---------0---3-3-0-------------------------------------------
B|-------1---1-----------1-------1-------1---1---0-------------
G|---------------------0---0---0---0---2---2---0---------0-----
D|-----------------------------------3---------------0h2---2---
A|-----3-------2-----0-----------------------------3---------3-
E|-3h5-----------------------3---------------3---3-------------

Stave 2:

E|---------0---3-3-0---------------------1-0-----0-3-----------
B|-----------1-----------1-------1-----------3-1---------------
G|-------0-------------0---0---0---0---2---------------0-------
D|-----------------------------------3---------------0---0-----
A|-----3-------2-----0---------------------3---------------0-2-
E|-3h5-----------------------3---------------------3-----------

Stave 3:

E|-----0-3-3-0------------0--------------------0-----0---------------0---3-
B|-------3-3-1----------1---1--------------------3-1---3-------1-3-1---1---
G|---0---0-0-2----------0-----0----------10-10---------4---4---0-0-0-------
D|----------------------2-------------10-10--------------0---0-----2-------
A|-------2-3-0----------3-------10/12----------3---------------0-2-3-----2-
E|-3--------------------3------------------------------3-------------------

Stave 4:

E|-3-0-----------------------------------------------------3-3-1-1-
B|-----------3-----------1-----1---1---0-------------------4---1-3-
G|---------5---5-------4-----2---2-----------0-------------3---3-3-
D|-------5-------5---2-----3---------0-----2---2---------5-----0-0-
A|---------------------------------------3-------3-3-5-6-----------
E|-----5-----------3-------1-------3-------------------------------

Stave 5:

E|-------1------------------------------------3-3-1-1-------------------
B|-4-4-----1-3-------1-5-6-8-11-11-10---------4---------4-4-1-1-3-3-----
G|-5---5---------0---2-5-7-9-12----10---------3---------0-------------0-
D|-5-----------3---3---------12-12-10-------5-----0-----------------3---
A|-3-----0-3-1-------0---0---10----12-3-5-6-----------1-3-2-1-----1-----
E|----------------------------------------------------------------------

Stave 6:

E|-----1-3-------12----15-17-12-------------------13-15--------------------
B|---1---3----------13------------1-------1-------------15b17-15-13/15-----
G|-------0-----5----------------0---0---0---0---2--------------------------
D|-3-----0-----5------------------------------3----------------------------
A|---0-----0-2-3-------------0-----------------------------------------0-2-
E|-------3----------------------------3------------------------------------

Stave 7:

E|---12----15/17-12----------------------13-15----------------
B|------13-------13----13--------1-------------15b17-15-13-15-
G|-5-------------12-12----12---0---0---2----------------------
D|-5---------------------------------3------------------------
A|-3-------------12-------------------------------------------
E|---------------------------3--------------------------------

Stave 8:

E|-
B|-
G|-
D|-
A|-
E|-

http://www.guitartabcreator.com
Guitar Tab Creator is intended to store guitar tab created through the tool. It currently does not support in-line text editing. Any text you place in here will be lost. If you need to comment on your tab, please use the "Tab Notes" section located below.