Sound will begin in 5 seconds

Dethklok - The Duel

01234567891011121314151617181920212223
E
B
G
D
A
E
B
0 1 2 3 4 5 6 7 8 9 10 11 12 13 14 15 16 17 18 19 20 21 22 23
Song Science #1: How Pros Use 6 Chords to Write Hit Songs
(/) Slide Up  (\) Slide Down  (h) Hammer On  (p) Pull Off  (b) Bend (r) Release (v) Vibrato

Stave 1:

C |--14b15--14--14b15-------------11h14p11------------------------------7b8--7h8p7p5--------------------
G |--------------------12b13--12------------12--------------8-----8b10----------------8p7p5-------------
Eb|---------------------------------------------11\8-----------7-----------------------------7p5p4------
Bb|---------------------------------------------------9---------------------------------------------7p5p
F |-----------------------------------------------------------------------------------------------------
C |-----------------------------------------------------------------------------------------------------

Stave 2:

C |------------------------------------------|--
G |------------------------------------------|--
Eb|-----4h5p4p3------------------------------|--
Bb|--4-----------5p4p2--4p2-----2------------|--
F |--------------------------5-----5p3--5/7--|--
C |------------------------------------------|--

Stave 3:

C |------------------------------------------------------------------7--12b7---------7---------|--
G |--12--11--12-----7b8--7--5--5b7p5p4--5--4--3------------------10-----------10b12-----14b16--|--
Eb|----------------------------------------------4----------5/9--------------------------------|--
Bb|-------------------------------------------------5--5/7-------------------------------------|--
F |--------------------------------------------------------------------------------------------|--
C |--------------------------------------------------------------------------------------------|--

Stave 4:

C |--
G |--
Eb|--
Bb|--
F |--
C |--

http://www.guitartabcreator.com
Guitar Tab Creator is intended to store guitar tab created through the tool. It currently does not support in-line text editing. Any text you place in here will be lost. If you need to comment on your tab, please use the "Tab Notes" section located below.