Alabama - I'm In A Hurry (And Don't Know Why)

01234567891011121314151617181920212223
E
B
G
D
A
E
B
0 1 2 3 4 5 6 7 8 9 10 11 12 13 14 15 16 17 18 19 20 21 22 23
(/) Slide Up  (\) Slide Down  (h) Hammer On  (p) Pull Off  (b) Bend (r) Release (v) Vibrato

(W|WW) Whole  (H|HH) Half  (Q|QQ) Quarter  (E|EE) 8th (S|SS) 16th  (T|TT) 32nd (X|XX) 64th

Stave 1:
t:                          E  E     E  E     E  E     E  E     E  E     E  E     E  E     E  
G|--|--|--|--|--|--|--|--|-----------------|-----------------|-----------------|-----------------|-----------------|-----------------|-----------------|-----
D|--|--|--|--|--|--|--|--|-----------------|-----------------|--4--4-----------|-----------------|-----------------|-----------------|--4--4-----------|-----
A|--|--|--|--|--|--|--|--|-----------------|--7--7-----------|-----------------|--5--5-----------|-----------------|--7--7-----------|-----------------|--5--
E|--|--|--|--|--|--|--|--|--5--5-----------|-----------------|-----------------|-----------------|--5--5-----------|-----------------|-----------------|-----
B|--|--|--|--|--|--|--|--|-----------------|-----------------|-----------------|-----------------|-----------------|-----------------|-----------------|-----

Stave 2:
t:  E  Q  E  E  E  E     E  E  E  E  E  E  E  E     E  E  E  E  E  E  E  E     E  E  E  E  E  E  E  E     E  E  E  E  E  E  E  E     E  E  E  E  E  E  E  
G|-----------------------|--------------------------|--------------------------|--------------------------|--------------------------|-----------------------
D|-----------------------|--------------------------|--------------------------|--------------------------|--------------------------|-----------------------
A|--5--5-----5--5--4-----|--------------------------|--------------------------|--------------------------|--5--5--5--5--5--5--5--7--|-----------------------
E|--------------------7--|--5--5--5--5--5--5--5--5--|--------------------------|--------------------------|--------------------------|--5--5--5--5--5--5--5--
B|-----------------------|--------------------------|--5--5--5--5--5--5--5--5--|--7--7--7--7--7--7--7--7--|--------------------------|-----------------------

Stave 3:
t:  E     E  E  E  E  E  E  E E     E  E  E  E  E  E  E  E     E  E  E  E  E  E  E  E     E  E     E  E     E  E     E  E     
G|-----|-------------------------|--------------------------|--------------------------|-----------------|-----------------|-----------------|-----------------|--
D|-----|-------------------------|--4--4--4--4--4--4--4--4--|--------------------------|-----------------|-----------------|--4--4-----------|-----------------|--
A|-----|-------------------------|--------------------------|--5--5--5--5--5--5--5--7--|-----------------|--7--7-----------|-----------------|--5--5-----------|--
E|--5--|-----------5--5--5--5/7--|--------------------------|--------------------------|--5--5-----------|-----------------|-----------------|-----------------|--
B|-----|--5--5--5----------------|--------------------------|--------------------------|-----------------|-----------------|-----------------|-----------------|--

Stave 4:
t:  E  E     E  E     E  E     E  E  E  E  E  E     E  E  E  E  E  E  E  E     E  E  E  E  E  E  E  E     E  E  E  E  E  E  E  
G|-----------------|-----------------|-----------------|-----------------------|--------------------------|--------------------------|-----------------------
D|-----------------|-----------------|--4--4-----------|-----------------------|--------------------------|--------------------------|-----------------------
A|-----------------|--7--7-----------|-----------------|--5--5-----5--5--4-----|--------------------------|--------------------------|-----------------------
E|--5--5-----------|-----------------|-----------------|--------------------7--|--5--5--5--5--5--5--5--5--|--------------------------|-----------------------
B|-----------------|-----------------|-----------------|-----------------------|--------------------------|--5--5--5--5--5--5--5--5--|--7--7--7--7--7--7--7--

Stave 5:
t:  E     E  E  E  E  E  E  E  E     E  E  E  E  E  E  E  E     E  E  E  E  E  E  E E     E  E  E  E  E  E  E  E     E  E  E  E  E  E  E  E     
G|-----|--------------------------|--------------------------|-------------------------|--------------------------|--------------------------|--
D|-----|--------------------------|--------------------------|-------------------------|--4--4--4--4--4--4--4--4--|--------------------------|--
A|-----|--5--5--5--5--5--5--5--7--|--------------------------|-------------------------|--------------------------|--5--5--5--5--5--5--5--7--|--
E|-----|--------------------------|--5--5--5--5--5--5--5--5--|-----------5--5--5--5/7--|--------------------------|--------------------------|--
B|--7--|--------------------------|--------------------------|--5--5--5----------------|--------------------------|--------------------------|--

Stave 6:
t:  E  E  E  E  E  E  E  E     E  E  E  E  E  E  E  E     E     E     E     E     E     E     E     E  E  E  E  E  E  E  E     E  E  E  E  E  E  E  E  E     
G|--------------------------|--------------------------|-----|-----|-----|-----|-----|-----|-----|--------------------------|-----------------------------|--
D|--------------------------|--------------------------|-----|-----|-----|-----|-----|-----|-----|--------------------------|-----------------------------|--
A|--------------------------|--------------------------|--7--|--5--|-----|-----|-----|--5--|-----|--------------------------|-----------------------------|--
E|--5--5--5--5--5--5--5--5--|--5--5--5--5--5--5--5--5--|-----|-----|--5--|-----|-----|-----|--5--|--------------------------|--5--5--5--5--5--5--5--5--5--|--
B|--------------------------|--------------------------|-----|-----|-----|--5--|--7--|-----|-----|--5--5--5--5--5--5--5--5--|-----------------------------|--

Stave 7:
t:  E  E  E  E  E  E  E  E     E  E  E  E  E  E  E  E     E  E  E  E  E  E  E  E     E  E  E  E  E  E  E  E     E  E  E  E  E  E  E E     E  E  E  E  E  
G|--------------------------|--------------------------|--------------------------|--------------------------|-------------------------|-----------------
D|--------------------------|--------------------------|--------------------------|--------------------------|-------------------------|--4--4--4--4--4--
A|--------------------------|-----------------------5--|--5--5--5--5--5--4--------|--------------------------|-------------------------|-----------------
E|--------------------------|--------------------------|--------------------7--5--|--5--5--5--5--5--5--5--5--|--------------5--5--5/7--|-----------------
B|--5--5--5--5--5--5--5--5--|--7--7--7--7--7--7--7-----|--------------------------|--------------------------|--5--5--5--5-------------|-----------------

Stave 8:
t:  E  E  E     E  E  E  E  E  E  E  E     E              E  E        E  E     E  E  E  E  E     W  W  W  W  W  
G|-----------|--------------------------|--------------|-----|-----|-----|-----------------|-----|--------|--------------------------|-----------------
D|--4--4-----|--------------------------|--------------|-----|-----|-----|-----------------|-----|--------|--------------------------|-----------------
A|--------5--|--4--------4--5--5--4-----|--------------|-----|-----|-----|-----------------|-----|--5--4--|--------------7--7--7--7--|-----------------
E|-----------|--------5--------------7--|--5-----------|-----|-----|-----|--5--5-----------|-----|--------|--------------------------|--5--5--5--5--5--
B|-----------|-----7--------------------|--------------|-----|-----|-----|-----------------|-----|--------|--7-----------------------|-----------------

Stave 9:
t:  E  E  E     E  E  E  E  E  E  E  E     E  E  E  E  E  E  E  E     E  E  E  E  E  E  E  E     E  E  E  E  E  E  E  E     E  E  E  E  E  E  E  E     E  E  
G|-----------|--------------------------|--------------------------|--------------------------|--------------------------|--------------------------|--------
D|-----------|--------------------------|--------------------------|--------------------------|--------------------------|--------------------------|--------
A|-----------|--------------------------|--------------------------|--5--5--5--5--5--5--4-----|--------------------------|--5--5--5--5--5--5--7--7--|--------
E|--5--5--5--|--------------------------|--------------------------|-----------------------7--|--------------------------|--------------------------|--5--5--
B|-----------|--5--5--5--5--5--5--5--5--|--7--7--7--7--7--7--7--5--|--------------------------|--7--7--7--7--7--7--7--5--|--------------------------|--------

Stave 10:
t:  E  E  E  E  E  E     E  E  E  E  E  E  E  E     E  E  E  E  E  E  E  E     E  E  E  E  E  E  E  E     E  E  E  E  E  E  E  E     E  E  E  E  E  E  E  E     
G|--------------------|--------------------------|--------------------------|--------------------------|--------------------------|--------------------------|--
D|--------------------|--------------------------|--------------------------|--------------------------|--------------------------|--------------------------|--
A|--------------------|--------------------------|--------------------------|--5--5--5--5--5--5--4-----|--------------------------|--------------------------|--
E|--5--5--5--5--5--5--|--------------------------|--------------------------|-----------------------7--|--5--5--5--5--5--5--5--5--|--------------5--5--------|--
B|--------------------|--5--5--5--5--5--5--5--5--|--7--7--7--7--7--7--7--5--|--------------------------|--------------------------|--5--5--5--5--------5--7--|--

Stave 11:
t:  E  E  E  E  E  E  E  E     E  E  E  E  E  E  E  E                          
G|--------------------------|--------------------------|--|--|--|--|--|--|--|--
D|--------------------------|--------------------------|--|--|--|--|--|--|--|--
A|--------------------------|--5--5--5--5--5--5--4-----|--|--|--|--|--|--|--|--
E|--------------------------|-----------------------7--|--|--|--|--|--|--|--|--
B|--7--7--7--7--7--7--7--5--|--------------------------|--|--|--|--|--|--|--|--

							http://www.guitartabcreator.com
Chords

genre
Instruments
{"strings":[[["|","|","|","|","|","|","|","|",".",".","_","_","_","|",".",".","_","_","_","|",".",".","_","_","_","|",".",".","_","_","_","|",".",".","_","_","_","|",".",".","_","_","_","|",".",".","_","_","_","|","."],["|","|","|","|","|","|","|","|",".",".","_","_","_","|",".",".","_","_","_","|",4,4,"_","_","_","|",".",".","_","_","_","|",".",".","_","_","_","|",".",".","_","_","_","|",4,4,"_","_","_","|","."],["|","|","|","|","|","|","|","|",".",".","_","_","_","|",7,7,"_","_","_","|",".",".","_","_","_","|",5,5,"_","_","_","|",".",".","_","_","_","|",7,7,"_","_","_","|",".",".","_","_","_","|",5],["|","|","|","|","|","|","|","|",5,5,"_","_","_","|",".",".","_","_","_","|",".",".","_","_","_","|",".",".","_","_","_","|",5,5,"_","_","_","|",".",".","_","_","_","|",".",".","_","_","_","|","."],["|","|","|","|","|","|","|","|",".",".","_","_","_","|",".",".","_","_","_","|",".",".","_","_","_","|",".",".","_","_","_","|",".",".","_","_","_","|",".",".","_","_","_","|",".",".","_","_","_","|","."]],[[".",".","_",".",".",".",".","|",".",".",".",".",".",".",".",".","|",".",".",".",".",".",".",".",".","|",".",".",".",".",".",".",".",".","|",".",".",".",".",".",".",".",".","|",".",".",".",".",".",".","."],[".",".","_",".",".",".",".","|",".",".",".",".",".",".",".",".","|",".",".",".",".",".",".",".",".","|",".",".",".",".",".",".",".",".","|",".",".",".",".",".",".",".",".","|",".",".",".",".",".",".","."],[5,5,"_",5,5,4,".","|",".",".",".",".",".",".",".",".","|",".",".",".",".",".",".",".",".","|",".",".",".",".",".",".",".",".","|",5,5,5,5,5,5,5,7,"|",".",".",".",".",".",".","."],[".",".","_",".",".",".",7,"|",5,5,5,5,5,5,5,5,"|",".",".",".",".",".",".",".",".","|",".",".",".",".",".",".",".",".","|",".",".",".",".",".",".",".",".","|",5,5,5,5,5,5,5],[".",".","_",".",".",".",".","|",".",".",".",".",".",".",".",".","|",5,5,5,5,5,5,5,5,"|",7,7,7,7,7,7,7,7,"|",".",".",".",".",".",".",".",".","|",".",".",".",".",".",".","."]],[[".","|",".",".",".",".",".",".",".",".",".","|",".",".",".",".",".",".",".",".","|",".",".",".",".",".",".",".",".","|",".",".","_","_","_","|",".",".","_","_","_","|",".",".","_","_","_","|",".",".","_","_","_","|"],[".","|",".",".",".",".",".",".",".",".",".","|",4,4,4,4,4,4,4,4,"|",".",".",".",".",".",".",".",".","|",".",".","_","_","_","|",".",".","_","_","_","|",4,4,"_","_","_","|",".",".","_","_","_","|"],[".","|",".",".",".",".",".",".",".",".",".","|",".",".",".",".",".",".",".",".","|",5,5,5,5,5,5,5,7,"|",".",".","_","_","_","|",7,7,"_","_","_","|",".",".","_","_","_","|",5,5,"_","_","_","|"],[5,"|",".",".",".",5,5,5,5,"/",7,"|",".",".",".",".",".",".",".",".","|",".",".",".",".",".",".",".",".","|",5,5,"_","_","_","|",".",".","_","_","_","|",".",".","_","_","_","|",".",".","_","_","_","|"],[".","|",5,5,5,".",".",".",".",".",".","|",".",".",".",".",".",".",".",".","|",".",".",".",".",".",".",".",".","|",".",".","_","_","_","|",".",".","_","_","_","|",".",".","_","_","_","|",".",".","_","_","_","|"]],[[".",".","_","_","_","|",".",".","_","_","_","|",".",".","_","_","_","|",".",".","_",".",".",".",".","|",".",".",".",".",".",".",".",".","|",".",".",".",".",".",".",".",".","|",".",".",".",".",".",".","."],[".",".","_","_","_","|",".",".","_","_","_","|",4,4,"_","_","_","|",".",".","_",".",".",".",".","|",".",".",".",".",".",".",".",".","|",".",".",".",".",".",".",".",".","|",".",".",".",".",".",".","."],[".",".","_","_","_","|",7,7,"_","_","_","|",".",".","_","_","_","|",5,5,"_",5,5,4,".","|",".",".",".",".",".",".",".",".","|",".",".",".",".",".",".",".",".","|",".",".",".",".",".",".","."],[5,5,"_","_","_","|",".",".","_","_","_","|",".",".","_","_","_","|",".",".","_",".",".",".",7,"|",5,5,5,5,5,5,5,5,"|",".",".",".",".",".",".",".",".","|",".",".",".",".",".",".","."],[".",".","_","_","_","|",".",".","_","_","_","|",".",".","_","_","_","|",".",".","_",".",".",".",".","|",".",".",".",".",".",".",".",".","|",5,5,5,5,5,5,5,5,"|",7,7,7,7,7,7,7]],[[".","|",".",".",".",".",".",".",".",".","|",".",".",".",".",".",".",".",".","|",".",".",".",".",".",".",".",".",".","|",".",".",".",".",".",".",".",".","|",".",".",".",".",".",".",".",".","|"],[".","|",".",".",".",".",".",".",".",".","|",".",".",".",".",".",".",".",".","|",".",".",".",".",".",".",".",".",".","|",4,4,4,4,4,4,4,4,"|",".",".",".",".",".",".",".",".","|"],[".","|",5,5,5,5,5,5,5,7,"|",".",".",".",".",".",".",".",".","|",".",".",".",".",".",".",".",".",".","|",".",".",".",".",".",".",".",".","|",5,5,5,5,5,5,5,7,"|"],[".","|",".",".",".",".",".",".",".",".","|",5,5,5,5,5,5,5,5,"|",".",".",".",5,5,5,5,"/",7,"|",".",".",".",".",".",".",".",".","|",".",".",".",".",".",".",".",".","|"],[7,"|",".",".",".",".",".",".",".",".","|",".",".",".",".",".",".",".",".","|",5,5,5,".",".",".",".",".",".","|",".",".",".",".",".",".",".",".","|",".",".",".",".",".",".",".",".","|"]],[[".",".",".",".",".",".",".",".","|",".",".",".",".",".",".",".",".","|",".","|",".","|",".","|",".","|",".","|",".","|",".","|",".",".",".",".",".",".",".",".","|",".",".",".",".",".",".",".",".",".","|"],[".",".",".",".",".",".",".",".","|",".",".",".",".",".",".",".",".","|",".","|",".","|",".","|",".","|",".","|",".","|",".","|",".",".",".",".",".",".",".",".","|",".",".",".",".",".",".",".",".",".","|"],[".",".",".",".",".",".",".",".","|",".",".",".",".",".",".",".",".","|",7,"|",5,"|",".","|",".","|",".","|",5,"|",".","|",".",".",".",".",".",".",".",".","|",".",".",".",".",".",".",".",".",".","|"],[5,5,5,5,5,5,5,5,"|",5,5,5,5,5,5,5,5,"|",".","|",".","|",5,"|",".","|",".","|",".","|",5,"|",".",".",".",".",".",".",".",".","|",5,5,5,5,5,5,5,5,5,"|"],[".",".",".",".",".",".",".",".","|",".",".",".",".",".",".",".",".","|",".","|",".","|",".","|",5,"|",7,"|",".","|",".","|",5,5,5,5,5,5,5,5,"|",".",".",".",".",".",".",".",".",".","|"]],[[".",".",".",".",".",".",".",".","|",".",".",".",".",".",".",".",".","|",".",".",".",".",".",".",".",".","|",".",".",".",".",".",".",".",".","|",".",".",".",".",".",".",".",".",".","|",".",".",".",".","."],[".",".",".",".",".",".",".",".","|",".",".",".",".",".",".",".",".","|",".",".",".",".",".",".",".",".","|",".",".",".",".",".",".",".",".","|",".",".",".",".",".",".",".",".",".","|",4,4,4,4,4],[".",".",".",".",".",".",".",".","|",".",".",".",".",".",".",".",5,"|",5,5,5,5,5,4,".",".","|",".",".",".",".",".",".",".",".","|",".",".",".",".",".",".",".",".",".","|",".",".",".",".","."],[".",".",".",".",".",".",".",".","|",".",".",".",".",".",".",".",".","|",".",".",".",".",".",".",7,5,"|",5,5,5,5,5,5,5,5,"|",".",".",".",".",5,5,5,"/",7,"|",".",".",".",".","."],[5,5,5,5,5,5,5,5,"|",7,7,7,7,7,7,7,".","|",".",".",".",".",".",".",".",".","|",".",".",".",".",".",".",".",".","|",5,5,5,5,".",".",".",".",".","|",".",".",".",".","."]],[[".",".",".","|",".",".",".",".",".",".",".",".","|",".","_","_","_","|","_","|","_","|","_","|",".",".","_","_","_","|","_","|",".",".","|",".","_","_","_",".",".",".",".","|",".",".",".",".","."],[4,4,".","|",".",".",".",".",".",".",".",".","|",".","_","_","_","|","_","|","_","|","_","|",".",".","_","_","_","|","_","|",".",".","|",".","_","_","_",".",".",".",".","|",".",".",".",".","."],[".",".",5,"|",4,".",".",4,5,5,4,".","|",".","_","_","_","|","_","|","_","|","_","|",".",".","_","_","_","|","_","|",5,4,"|",".","_","_","_",7,7,7,7,"|",".",".",".",".","."],[".",".",".","|",".",".",5,".",".",".",".",7,"|",5,"_","_","_","|","_","|","_","|","_","|",5,5,"_","_","_","|","_","|",".",".","|",".","_","_","_",".",".",".",".","|",5,5,5,5,5],[".",".",".","|",".",7,".",".",".",".",".",".","|",".","_","_","_","|","_","|","_","|","_","|",".",".","_","_","_","|","_","|",".",".","|",7,"_","_","_",".",".",".",".","|",".",".",".",".","."]],[[".",".",".","|",".",".",".",".",".",".",".",".","|",".",".",".",".",".",".",".",".","|",".",".",".",".",".",".",".",".","|",".",".",".",".",".",".",".",".","|",".",".",".",".",".",".",".",".","|",".","."],[".",".",".","|",".",".",".",".",".",".",".",".","|",".",".",".",".",".",".",".",".","|",".",".",".",".",".",".",".",".","|",".",".",".",".",".",".",".",".","|",".",".",".",".",".",".",".",".","|",".","."],[".",".",".","|",".",".",".",".",".",".",".",".","|",".",".",".",".",".",".",".",".","|",5,5,5,5,5,5,4,".","|",".",".",".",".",".",".",".",".","|",5,5,5,5,5,5,7,7,"|",".","."],[5,5,5,"|",".",".",".",".",".",".",".",".","|",".",".",".",".",".",".",".",".","|",".",".",".",".",".",".",".",7,"|",".",".",".",".",".",".",".",".","|",".",".",".",".",".",".",".",".","|",5,5],[".",".",".","|",5,5,5,5,5,5,5,5,"|",7,7,7,7,7,7,7,5,"|",".",".",".",".",".",".",".",".","|",7,7,7,7,7,7,7,5,"|",".",".",".",".",".",".",".",".","|",".","."]],[[".",".",".",".",".",".","|",".",".",".",".",".",".",".",".","|",".",".",".",".",".",".",".",".","|",".",".",".",".",".",".",".",".","|",".",".",".",".",".",".",".",".","|",".",".",".",".",".",".",".",".","|"],[".",".",".",".",".",".","|",".",".",".",".",".",".",".",".","|",".",".",".",".",".",".",".",".","|",".",".",".",".",".",".",".",".","|",".",".",".",".",".",".",".",".","|",".",".",".",".",".",".",".",".","|"],[".",".",".",".",".",".","|",".",".",".",".",".",".",".",".","|",".",".",".",".",".",".",".",".","|",5,5,5,5,5,5,4,".","|",".",".",".",".",".",".",".",".","|",".",".",".",".",".",".",".",".","|"],[5,5,5,5,5,5,"|",".",".",".",".",".",".",".",".","|",".",".",".",".",".",".",".",".","|",".",".",".",".",".",".",".",7,"|",5,5,5,5,5,5,5,5,"|",".",".",".",".",5,5,".",".","|"],[".",".",".",".",".",".","|",5,5,5,5,5,5,5,5,"|",7,7,7,7,7,7,7,5,"|",".",".",".",".",".",".",".",".","|",".",".",".",".",".",".",".",".","|",5,5,5,5,".",".",5,7,"|"]],[[".",".",".",".",".",".",".",".","|",".",".",".",".",".",".",".",".","|","|","|","|","|","|","|","|"],[".",".",".",".",".",".",".",".","|",".",".",".",".",".",".",".",".","|","|","|","|","|","|","|","|"],[".",".",".",".",".",".",".",".","|",5,5,5,5,5,5,4,".","|","|","|","|","|","|","|","|"],[".",".",".",".",".",".",".",".","|",".",".",".",".",".",".",".",7,"|","|","|","|","|","|","|","|"],[7,7,7,7,7,7,7,5,"|",".",".",".",".",".",".",".",".","|","|","|","|","|","|","|","|"]]],"numberofstrings":5,"notes":["G","D","A","E","B"],"capo":0,"stringnotes":["G2","D2","A1","E1","B0"],"comments":["Stave 1:","Stave 2:","Stave 3:","Stave 4:","Stave 5:","Stave 6:","Stave 7:","Stave 8:","Stave 9:","Stave 10:","Stave 11:"],"timing":[[null,null,null,null,null,null,null,null,"E","E",null,null,null,null,"E","E",null,null,null,"W","E","E",null,null,null,null,"E","E",null,null,null,null,"E","E",null,null,null,"E","E","E",null,null,null,null,"E","E",null,null,null,null,"E"],["E","Q",null,"E","E","E","E",null,"E","E","E","E","E","E","E","E",null,"E","E","E","E","E","E","E","E",null,"E","E","E","E","E","E","E","E",null,"E","E","E","E","E","E","E","E",null,"E","E","E","E","E","E","E"],["E",null,"E","E","E","E","E","E","E",null,"E",null,"E","E","E","E","E","E","E","E",null,"E","E","E","E","E","E","E","E",null,"E","E",null,null,null,null,"E","E",null,null,null,null,"E","E",null,null,null,null,"E","E"],["E","E",null,null,null,null,"E","E",null,null,null,null,"E","E",null,null,null,null,"E","E",null,"E","E","E","E",null,"E","E","E","E","E","E","E","E",null,"E","E","E","E","E","E","E","E",null,"E","E","E","E","E","E","E"],["E",null,"E","E","E","E","E","E","E","E",null,"E","E","E","E","E","E","E","E",null,"E","E","E","E","E","E","E",null,"E",null,"E","E","E","E","E","E","E","E",null,"E","E","E","E","E","E","E","E"],["E","E","E","E","E","E","E","E",null,"E","E","E","E","E","E","E","E",null,"E",null,"E",null,"E",null,"E",null,"E",null,"E",null,"E",null,"E","E","E","E","E","E","E","E",null,"E","E","E","E","E","E","E","E","E"],["E","E","E","E","E","E","E","E",null,"E","E","E","E","E","E","E","E",null,"E","E","E","E","E","E","E","E",null,"E","E","E","E","E","E","E","E",null,"E","E","E","E","E","E","E","E","E",null,"E","E","E","E","E"],["E","E","E",null,"E","E","E","E","E","E","E","E",null,"E",null,null,null,null,null,null,null,null,null,null,"E","E",null,null,null,null,null,null,"E","E",null,"E","E","E","E","E","E","E","E",null,"W","W","W","W","W"],["E","E","E","E","E","E","E","E","E","E","E","E",null,"E","E","E","E","E","E","E","E",null,"E","E","E","E","E","E","E","E",null,"E","E","E","E","E","E","E","E",null,"E","E","E","E","E","E","E","E",null,"E","E"],["E","E","E","E","E","E",null,"E","E","E","E","E","E","E","E",null,"E","E","E","E","E","E","E","E",null,"E","E","E","E","E","E","E","E","E","E","E","E","E","E","E","E","E",null,"E","E","E","E","E","E","E","E"],["E","E","E","E","E","E","E","E",null,"E","E","E","E","E","E","E","E"]],"timingvisible":true,"tabcounter":25,"stave":10,"totalstaves":11,"instrument":"5bass","selectedtuning":"5bass","version":"13"}

Member for

2 months
Picture
Submitted by crayonsforchow on Thu, 2021-02-18 16:19