Sound will begin in 5 seconds

Into the woods

Chords
01234567891011121314151617181920212223
E
B
G
D
A
E
B
0 1 2 3 4 5 6 7 8 9 10 11 12 13 14 15 16 17 18 19 20 21 22 23
Song Science #1: How Pros Use 6 Chords to Write Hit Songs
(/) Slide Up  (\) Slide Down  (h) Hammer On  (p) Pull Off  (b) Bend (r) Release (v) Vibrato

Capo Fret 23

(W|WW) Whole (H|HH) Half (Q|QQ) Quarter (E|EE) 8th (S|SS) 16th (T|TT) 32nd (X|XX) 64th

Stave 1:
t: W W W W W W W W W W W W W W W W W W W W W W W W W W W
D|----------------------------------------------------------
A|-------7-6-7-------7-6-7-6---------3-2---------3-2-3------
F|-----8-----------8---------8-----4-----4-----4-------4----
C|---8-----------8---------------4-----------4--------------
G|-6-----------6---------------2-----------2----------------
D|----------------------------------------------------------

Stave 2:
t: W W W W W W W W W W W W W W W W W W W W W W W W W W W W W W W W W W W W W W W W W W W W W W W W W W W
D|-------------------------------------------------------------------------------------------------------
A|-7-7-7-7-7-7-7-7-7-3-3-3-3-3-3-7-7-7-7-7-7-7-7-7-7-3-3-3-2-2-2-7-7-7---7-7-7-7-7-7-3-3-3-2-2-2-6-6-6-6-
F|-8-8-8-8-8-8-8-8-8-4-4-4-4-4-4-8-8-8-8-8-8-8-8-8-8-4-4-4-3-3-3-8-8-8-8-8-8-8-8-8-8-4-4-4-3-3-3-7-7-7-7-
C|-8-8-8-8-8-8-8-8-8-4-4-4-4-4-4-8-8-8-8-8-8-8-8-8-8-4-4-4-3-3-3-8-8-8-8-8-8-8-8-8-8-4-4-4-3-3-3-7-7-7-7-
G|-6-6-6-6-6-6-6-6-6-2-2-2-2-2-2-6-6-6-6-6-6-6-6-6-6-2-2-2-1-1-1-6-6-6-6-6-6-6-6-6-6-2-2-2-1-1-1-5-5-5-5-
D|-------------------------------------------------------------------------------------------------------

Stave 3:
t: W W W W W W
D|-------------
A|-6-6-6-6-6-6-
F|-7-7-7-7-7-7-
C|-7-7-7-7-7-7-
G|-5---5-5-5-5-
D|-------------

Stave 4:
t: W W W W W W W W W W W W W W W W W W W W W W W W W W W W W W W W W W W W W W W W W W W W W W
D|---------------------------------------------------------------------------------------------
A|-------------------------7-7-7-7-6-6-6-6-------------------------------------------------3-3-
F|-----------------8-8-8-8-----------------8-8-8-8---------------------------------4-4-4-4-----
C|---------8-8-8-8---------------------------------8-8-8-8-----------------4-4-4-4-------------
G|-6-6-6-6-------------------------------------------------6-6-6-6-2-2-2-2---------------------
D|---------------------------------------------------------------------------------------------

Stave 5:
t: W W W W W W W W W W W W W W W W W
D|--------------------------------------
A|-3-3-2-2-2-2--------------------------
F|-------------4-4-4-4------------------
C|---------------------4-4-4-4----------
G|-----------------------------2-2-2----
D|--------------------------------------

http://www.guitartabcreator.com
Guitar Tab Creator is intended to store guitar tab created through the tool. It currently does not support in-line text editing. Any text you place in here will be lost. If you need to comment on your tab, please use the "Tab Notes" section located below.