Sound will begin in 5 seconds

Walk Softly On This Heart of Mine

01234567891011121314151617181920212223
E
B
G
D
A
E
B
0 1 2 3 4 5 6 7 8 9 10 11 12 13 14 15 16 17 18 19 20 21 22 23
Song Science #1: How Pros Use 6 Chords to Write Hit Songs
(/) Slide Up  (\) Slide Down  (h) Hammer On  (p) Pull Off  (b) Bend (r) Release (v) Vibrato

Stave 1:

E|----------------|---------------------------------------|------------------------------|--
B|-----------10v--|--12b14r12--10------10--12b14r12--10v--|--12b14r12--10------10--10\5--|--
G|--7/9--11-------|----------------11---------------------|----------------11------------|--
D|----------------|---------------------------------------|------------------------------|--
A|----------------|---------------------------------------|------------------------------|--
E|----------------|---------------------------------------|------------------------------|--

Stave 2:

E|-------5--5-------5--5-------5--5-------5--5--|---------------------------------------------------|--
B|----------------------------------------------|---------------------------------------------------|--
G|--7b9--------7b9--------7b9--------7b9--------|--7b9r7--5-----7--5--7b9r7--5--7v--5-----7--5------|--
D|----------------------------------------------|------------7-------------------------7--------7v--|--
A|----------------------------------------------|---------------------------------------------------|--
E|----------------------------------------------|---------------------------------------------------|--

Stave 3:

E|---------------------------------|---------------------------------|--
B|--15b17r15--13------15--13-------|---------------------------------|--
G|----------------14----------14v--|--12------12v--------------------|--
D|---------------------------------|------14-------10----------10\5--|--
A|---------------------------------|-------------------12--12--------|--
E|---------------------------------|---------------------------------|--

Stave 4:

E|---------------------|---------------|--------------------------|--------------------
B|---------------------|---------------|--------------------------|--5-----5-----5-----
G|--7b9--7b9r7--5--7v--|--5-----7--5v--|--5/9v--7v--5v------------|--------------------
D|---------------------|-----7---------|----------------7--5--7v--|-----7-----7-----7--
A|---------------------|---------------|--------------------------|--------------------
E|---------------------|---------------|--------------------------|--------------------

http://www.guitartabcreator.com
Guitar Tab Creator is intended to store guitar tab created through the tool. It currently does not support in-line text editing. Any text you place in here will be lost. If you need to comment on your tab, please use the "Tab Notes" section located below.