Sound will begin in 5 seconds

I Feel Lucky--main solo B

01234567891011121314151617181920212223
E
B
G
D
A
E
B
0 1 2 3 4 5 6 7 8 9 10 11 12 13 14 15 16 17 18 19 20 21 22 23
Song Science #1: How Pros Use 6 Chords to Write Hit Songs
(/) Slide Up  (\) Slide Down  (h) Hammer On  (p) Pull Off  (b) Bend (r) Release (v) Vibrato

Stave 1:

E|-----------------12v--|--12--12-------------------------------------------------|--
B|---------12--14-------|----------12--12--14b16r14------12------12v----14b16r14--|--
G|--12/13---------------|----------------------------13------13-------------------|--
D|----------------------|---------------------------------------------------------|--
A|----------------------|---------------------------------------------------------|--
E|----------------------|---------------------------------------------------------|--

Stave 2:

E|-----7------------------|-------7--10----7------7--|----------------------------7----------|--
B|--7-----9b10r9--7v--7v--|--7/9--------------10-----|-------------------------7-------------|--
G|------------------------|--------------------------|--9b11--9p7-----7--9b11--------9b11r9--|--
D|------------------------|--------------------------|-------------9-------------------------|--
A|------------------------|--------------------------|---------------------------------------|--
E|------------------------|--------------------------|---------------------------------------|--

Stave 3:

E|-------------7-----------------
B|----------7--------------------
G|--9b11r9--------9b11r9---------
D|------------------------9------
A|---------------------------9v--
E|-------------------------------

http://www.guitartabcreator.com
Guitar Tab Creator is intended to store guitar tab created through the tool. It currently does not support in-line text editing. Any text you place in here will be lost. If you need to comment on your tab, please use the "Tab Notes" section located below.