Sound will begin in 5 seconds

I Feel Lucky-Intro

01234567891011121314151617181920212223
E
B
G
D
A
E
B
0 1 2 3 4 5 6 7 8 9 10 11 12 13 14 15 16 17 18 19 20 21 22 23
Song Science #1: How Pros Use 6 Chords to Write Hit Songs
(/) Slide Up  (\) Slide Down  (h) Hammer On  (p) Pull Off  (b) Bend (r) Release (v) Vibrato

Stave 1:

E|-------------------------------------|--7--7------7--------------------|--
B|--------10--10--10--10--10--10--12v--|--------10-----------------------|--
G|--7/11-------------------------------|---------------9b11r9--7---------|--
D|-------------------------------------|--------------------------9--9v--|--
A|-------------------------------------|---------------------------------|--
E|-------------------------------------|---------------------------------|--

Stave 2:

E|--12p10----------10v--|-----------------------------------------|--
B|---------12--12-------|------17b19--19r17--15--17--15-----------|--
G|----------------------|--16----------------------------16v--\7--|--
D|----------------------|-----------------------------------------|--
A|----------------------|-----------------------------------------|--
E|----------------------|-----------------------------------------|--

http://www.guitartabcreator.com
Guitar Tab Creator is intended to store guitar tab created through the tool. It currently does not support in-line text editing. Any text you place in here will be lost. If you need to comment on your tab, please use the "Tab Notes" section located below.