Sound will begin in 5 seconds

Clutch - The Mob Goes Wild (Solo) (Ver like 90)

01234567891011121314151617181920212223
E
B
G
D
A
E
B
0 1 2 3 4 5 6 7 8 9 10 11 12 13 14 15 16 17 18 19 20 21 22 23
Song Science #1: How Pros Use 6 Chords to Write Hit Songs
(/) Slide Up  (\) Slide Down  (h) Hammer On  (p) Pull Off  (b) Bend (r) Release (v) Vibrato

Stave 1:

E|----------15------15--17--17----17b18----17b18--17----17b18--18--18r17--15--
B|--17----------17------------------------------------------------------------
G|----------------------------------------------------------------------------
D|----------------------------------------------------------------------------
A|----------------------------------------------------------------------------
E|----------------------------------------------------------------------------

Stave 2:

E|----------------------------15--17----17b19----17--15--17--15--19----------
B|-------------------------------------------------------------------17------
G|---------------------------------------------------------------------------
D|----14v------15b16--15-----------------------------------------------------
A|---------------------------------------------------------------------------
E|---------------------------------------------------------------------------

Stave 3:

E|------------------------------------------------------------
B|------------------------------------------------------------
G|--14b16--16--16--16--16--16--16r14--14--14--12--14--12------
D|--------------------------------------------------------14--
A|------------------------------------------------------------
E|------------------------------------------------------------

Stave 4:

E|------------------------------------------------------------------------
B|------------------------------------------------------------------------
G|--12--14--14b16--16--16--16--16--16--16r14--14--12----------------------
D|--------------------------------------------------------14b16r14----12--
A|------------------------------------------------------------------------
E|------------------------------------------------------------------------

Stave 5:

E|-----------------------------------------------------------
B|-----------------------------------------------------------
G|--------------------------------11-----11--11--11--11--11--
D|--------------------------------14b16--16--16--16--16--14--
A|----12--10--7--7--------17---------------------------------
E|-----------------------------------------------------------

Stave 6:

E|----------------------------------------------------------
B|----------------------------------------------------------
G|--13-----13--13--13--13--13----14-----14--14--14--14--14--
D|--16b18--18--18--18--18--16----17b19--19--19--19--19--17--
A|----------------------------------------------------------
E|----------------------------------------------------------

Stave 7:

E|---------------------------------------
B|---------------------------------------
G|----15-----15--15--15--15--------------
D|----18b20--20--20--20--18--------------
A|------------------------------5--7-----
E|---------------------------------------

http://www.guitartabcreator.com
Guitar Tab Creator is intended to store guitar tab created through the tool. It currently does not support in-line text editing. Any text you place in here will be lost. If you need to comment on your tab, please use the "Tab Notes" section located below.