Sound will begin in 5 seconds

Naruto Shippuden:[Storm 3] Seeking Answers

01234567891011121314151617181920212223
E
B
G
D
A
E
B
0 1 2 3 4 5 6 7 8 9 10 11 12 13 14 15 16 17 18 19 20 21 22 23
Song Science #1: How Pros Use 6 Chords to Write Hit Songs
(/) Slide Up  (\) Slide Down  (h) Hammer On  (p) Pull Off  (b) Bend (r) Release (v) Vibrato

Stave 1:

E|-11-10-8------------------------|--------------|-------------------|-
B|---------11-8----8---------8----|-------11-9-8-|-------------------|-
G|----------------------8/10------|--------------|-8----8----8/10----|-
D|--------------------------------|-10-----------|----------------12-|-
A|--------------------------------|--------------|-------------------|-
E|--------------------------------|--------------|-------------------|-

Stave 2:

E|-11-10-8---------|----8----10-11------|-----------8----10-|-
B|---------11-8----|-11------------8----|-------------------|-
G|-----------------|--------------------|-8/10\8\10---------|-
D|-----------------|--------------------|-------------------|-
A|-----------------|--------------------|-------------------|-
E|-----------------|--------------------|-------------------|-

Stave 3:

E|--------------|------------|--------------|-----------1------|-
B|-4-3-1--------|------------|-1-------4----|-4----4------3----|-
G|-------3-0----|-0--------0-|---3-1-3------|------------------|-
D|--------------|------1/3---|--------------|------------------|-
A|--------------|------------|--------------|------------------|-
E|--------------|------------|--------------|------------------|-

Stave 4:

E|---11-10-|-11-10-8----15----|-18----18-16-15-13-15----|-13----8-11-15----
B|-8-------|---------11-------|-------------------------|------------------
G|---------|------------------|-------------------------|------------------
D|---------|------------------|-------------------------|------------------
A|---------|------------------|-------------------------|------------------
E|---------|------------------|-------------------------|------------------

Stave 5:

E|-15----13-15----|-15-15-13-15----|-15-15-13-15-11-13-15-
B|----------------|----------------|----------------------
G|----------------|----------------|----------------------
D|----------------|----------------|----------------------
A|----------------|----------------|----------------------
E|----------------|----------------|----------------------

http://www.guitartabcreator.com
Guitar Tab Creator is intended to store guitar tab created through the tool. It currently does not support in-line text editing. Any text you place in here will be lost. If you need to comment on your tab, please use the "Tab Notes" section located below.