Sound will begin in 5 seconds

Naruto Shippuden- Guren [wip]

01234567891011121314151617181920212223
E
B
G
D
A
E
B
0 1 2 3 4 5 6 7 8 9 10 11 12 13 14 15 16 17 18 19 20 21 22 23
Song Science #1: How Pros Use 6 Chords to Write Hit Songs
(/) Slide Up  (\) Slide Down  (h) Hammer On  (p) Pull Off  (b) Bend (r) Release (v) Vibrato

Stave 1:

E|-------------5---|-------------8-5-|---6-8----6-----|-----------------|-
B|------6-8--------|------6-8--------|-8----------8-8-|-6----8----------|-
G|-7-------------7-|-7---------------|----------------|--------7----8-5-|-
D|-----------------|-----------------|----------------|-----------------|-
A|-----------------|-----------------|----------------|-----------------|-
E|-----------------|-----------------|----------------|-----------------|-

Stave 2:

E|-------------3---|----------------------|--------------|--------------|--------------|-
B|------4-6--------|--------4-6----/11----|-------11-13v-|-11-----------|--------------|-
G|-5-------------5-|-4/5---------------12-|-10/12--------|----12-10/12v-|-10/12-7/8-5v-|-
D|-----------------|----------------------|--------------|--------------|--------------|-
A|-----------------|----------------------|--------------|--------------|--------------|-
E|-----------------|----------------------|--------------|--------------|--------------|-

Stave 3:

E|-------------|-------------------|------------------|---------------|-----------------
B|-------------|-------------------|-7/8-6-3/4-3----4-|---------------|-------------3/5-
G|-8v----5v----|--------3----/6-7v-|------------------|---3/5/7/8-5-7-|-/10-7/8-4/6-----
D|-------------|-5/8---------------|------------------|-5-------------|-----------------
A|-------------|-------------------|------------------|---------------|-----------------
E|-------------|-------------------|------------------|---------------|-----------------

Stave 4:

E|------10----|-9-7-
B|------------|-----
G|-7----------|-----
D|------------|-----
A|------------|-----
E|------------|-----

http://www.guitartabcreator.com
Guitar Tab Creator is intended to store guitar tab created through the tool. It currently does not support in-line text editing. Any text you place in here will be lost. If you need to comment on your tab, please use the "Tab Notes" section located below.