Sound will begin in 5 seconds

Naruto- Sadness and Sorrow [wip]

01234567891011121314151617181920212223
E
B
G
D
A
E
B
0 1 2 3 4 5 6 7 8 9 10 11 12 13 14 15 16 17 18 19 20 21 22 23
Song Science #1: How Pros Use 6 Chords to Write Hit Songs
(/) Slide Up  (\) Slide Down  (h) Hammer On  (p) Pull Off  (b) Bend (r) Release (v) Vibrato

Stave 1:

E|--------|----------|--------------------------|-
B|--------|---8-10---|-8-------8-10-------12-10-|-
G|-11\9---|-9------9-|------11------11----------|-
D|------9-|----------|--------------------------|-
A|--------|----------|--------------------------|-
E|--------|----------|--------------------------|-

Stave 2:

E|-----------|--------------|------------------|-
B|-----------|------8h10----|-8-------8-10-----|-
G|-10/11-9---|-9/11------9v-|------11------7-9b|-
D|---------9-|--------------|------------------|-
A|-----------|--------------|------------------|-
E|-----------|--------------|------------------|-

Stave 3:

E|--------------|-----------------|----------------------------|-----------------------|-
B|---------9-11-|-----------------|----10----------12-12----10-|-10-12-----------------|-
G|-8-10-11------|-8-11-10----8----|-12----12-11----------------|-------9-12----11----9-|-
D|--------------|-----------------|----------------------------|-----------------------|-
A|--------------|-----------------|----------------------------|-----------------------|-
E|--------------|-----------------|----------------------------|-----------------------|-

Stave 4:

E|-------------|------------|-|-11v----9v-------|-------9-9-11----9-11-9-9\6-|-
B|----10-------|------------|-|--------------11-|-10/11----------------------|-
G|-12----12-11-|-------9----|-|-----------------|----------------------------|-
D|-------------|-12---------|-|-----------------|----------------------------|-
A|-------------|------------|-|-----------------|----------------------------|-
E|-------------|------------|-|-----------------|----------------------------|-

http://www.guitartabcreator.com
Guitar Tab Creator is intended to store guitar tab created through the tool. It currently does not support in-line text editing. Any text you place in here will be lost. If you need to comment on your tab, please use the "Tab Notes" section located below.