Sound will begin in 5 seconds

Diver (Kana-Boon) [wip]

01234567891011121314151617181920212223
E
B
G
D
A
E
B
0 1 2 3 4 5 6 7 8 9 10 11 12 13 14 15 16 17 18 19 20 21 22 23
Song Science #1: How Pros Use 6 Chords to Write Hit Songs
(/) Slide Up  (\) Slide Down  (h) Hammer On  (p) Pull Off  (b) Bend (r) Release (v) Vibrato

Stave 1:

E|---------|---------|-----------|-----------|---------|----------------|-
B|-----7-5-|-----8-7-|---5-7-8-7-|-5---------|-----7-5-|-----8-7--------|-
G|---7-----|---7-----|-7---------|---7---6-7-|---7-----|---7--------6-7-|-
D|-7-------|-7-------|-----------|-----7-----|-7-------|-7--------------|-
A|---------|---------|-----------|-----------|---------|----------------|-
E|---------|---------|-----------|-----------|---------|----------------|-

Stave 2:

E|---------------------------|-----------------|---------------------|-
B|---------------------------|-7/8-7-----------|-7/8-7---------------|-
G|-----7-9----------7-9------|----------9-7----|----------9-7----9---|-
D|-9-9-----7----9-9-----7----|-----------------|-------------------7-|-
A|---------------------------|-----------------|---------------------|-
E|---------------------------|-----------------|---------------------|-

Stave 3:

E|-|-----10---------------|-|-8/9-8----9----|-|-
B|-|-7/8----8-7----8-7----|-|---------------|-|-
G|-|----------------------|-|---------------|-|-
D|-|----------------------|-|---------------|-|-
A|-|----------------------|-|---------------|-|-
E|-|----------------------|-|---------------|-|-

Stave 4:

E|-11v----9v----9/14----13----8/9-9/11----------------|----------13----------------------12/13v-\0-
B|----------------------------------------10/11----9v-|-11-13-14----------------11-13--------------
G|----------------------------------------------------|----------------10-11-13--------------------
D|----------------------------------------------------|--------------------------------------------
A|----------------------------------------------------|--------------------------------------------
E|----------------------------------------------------|--------------------------------------------

Stave 5:

E|-----10-------------|---10--------10-----|-
B|-7/8-------8\7----8-|-7-------7h8----8r7-|-
G|--------------------|--------------------|-
D|--------------------|--------------------|-
A|--------------------|--------------------|-
E|--------------------|--------------------|-

http://www.guitartabcreator.com
Guitar Tab Creator is intended to store guitar tab created through the tool. It currently does not support in-line text editing. Any text you place in here will be lost. If you need to comment on your tab, please use the "Tab Notes" section located below.