Maniajoe

Chords

01234567891011121314151617181920212223
E
B
G
D
A
E
B
0 1 2 3 4 5 6 7 8 9 10 11 12 13 14 15 16 17 18 19 20 21 22 23
(/) Slide Up  (\) Slide Down  (h) Hammer On  (p) Pull Off  (b) Bend (r) Release (v) Vibrato

Stave 1:

E|-----------------------------
B|-----------------------------
G|-----------------------------
D|--------7--5--3--2--0--2-----
A|-----0--------------------0--
E|--5--------------------------

Stave 2:

E|--------------------------------
B|--------------------------------
G|--------------------------------
D|-----------------------------7--
A|-----0--7--5-----0--2--0-----0--
E|--5-----------3--------------0--

Stave 3:

E|--------------------------
B|--------------------------
G|--------------------------
D|--------7--5--------------
A|-----0--------2-----2--0--
E|--5--------------3--------

Stave 4:

E|---------------------------------
B|---------------------------------
G|---------------------------------
D|--------7--5--3--2h3p2--0--2-----
A|-----0------------------------0--
E|--5------------------------------

Stave 5:

E|-----------------------------
B|-----------------------------
G|-----------------------------
D|--------7--5--3--2--0--2-----
A|-----0--------0-----------0--
E|--5--------------------------

Stave 6:

E|--------------------------
B|--------------------------
G|--------------------------
D|--------------------------
A|-----7--5--3--2-----2--0--
E|--5--------------3--------

Stave 7:

E|--------------------------------------------------
B|--------------------------------------------------
G|--------------------------------------------------
D|--------------------------------------------------
A|-----0--7--5-----0--2--3-----7--5--3--2-----2--0--
E|--5-----------3-----------5--------------3--------

							http://www.guitartabcreator.com
Instruments
{"strings":[[[".",".",".",".",".",".",".",".","."],[".",".",".",".",".",".",".",".","."],[".",".",".",".",".",".",".",".","."],[".",".",7,5,3,2,0,2,"."],[".",0,".",".",".",".",".",".",0],[5,".",".",".",".",".",".",".","."]],[[".",".",".",".",".",".",".",".","_","."],[".",".",".",".",".",".",".",".","_","."],[".",".",".",".",".",".",".",".","_","."],[".",".",".",".",".",".",".",".","_",7],[".",0,7,5,".",0,2,0,"_",0],[5,".",".",".",3,".",".",".","_",0]],[[".",".",".",".",".",".",".","."],[".",".",".",".",".",".",".","."],[".",".",".",".",".",".",".","."],[".",".",7,5,".",".",".","."],[".",0,".",".",2,".",2,0],[5,".",".",".",".",3,".","."]],[[".",".",".",".",".",".",".",".",".",".",".",".","."],[".",".",".",".",".",".",".",".",".",".",".",".","."],[".",".",".",".",".",".",".",".",".",".",".",".","."],[".",".",7,5,3,2,"h",3,"p",2,0,2,"."],[".",0,".",".",".",".",".",".",".",".",".",".",0],[5,".",".",".",".",".",".",".",".",".",".",".","."]],[[".",".",".",".",".",".",".",".","."],[".",".",".",".",".",".",".",".","."],[".",".",".",".",".",".",".",".","."],[".",".",7,5,3,2,0,2,"."],[".",0,".",".",0,".",".",".",0],[5,".",".",".",".",".",".",".","."]],[[".",".",".",".",".",".",".","."],[".",".",".",".",".",".",".","."],[".",".",".",".",".",".",".","."],[".",".",".",".",".",".",".","."],[".",7,5,3,2,".",2,0],[5,".",".",".",".",3,".","."]],[[".",".",".",".",".",".",".",".",".",".",".",".",".",".",".","."],[".",".",".",".",".",".",".",".",".",".",".",".",".",".",".","."],[".",".",".",".",".",".",".",".",".",".",".",".",".",".",".","."],[".",".",".",".",".",".",".",".",".",".",".",".",".",".",".","."],[".",0,7,5,".",0,2,3,".",7,5,3,2,".",2,0],[5,".",".",".",3,".",".",".",5,".",".",".",".",3,".","."]]],"numberofstrings":6,"notes":["E","B","G","D","A","E","B"],"capo":0,"stringnotes":["E4","B3","G3","D3","A2","E2"],"comments":["Stave 1:","Stave 2:","Stave 3:","Stave 4:","Stave 5:","Stave 6:","Stave 7:"],"timing":[["W","W","W","W","W","W","W","W","W"],["W","W","W","W","W","W","W","W",null,"W"],["W","W","W","W","W","W","W","W"],["W","W","W","W","W","W",null,"W",null,"W","W","W","W"],["W","W","W","W","W","W","W","W","W"],["W","W","W","W","W","W","W","W"],["W","W","W","W","W","W","W","W","W","W","W","W","W","W","W","W"]],"timingvisible":false,"tabcounter":16,"stave":6,"totalstaves":7,"instrument":"6guitar","selectedtuning":"6_standard","version":"13"}

Member for

1 month 1 week
About Me
just guitar
Submitted by Country on Fri, 2020-10-23 12:25