Sound will begin in 5 seconds

Soul Eater "Resonance"

Chords
01234567891011121314151617181920212223
E
B
G
D
A
E
B
0 1 2 3 4 5 6 7 8 9 10 11 12 13 14 15 16 17 18 19 20 21 22 23
Song Science #1: How Pros Use 6 Chords to Write Hit Songs
(/) Slide Up  (\) Slide Down  (h) Hammer On  (p) Pull Off  (b) Bend (r) Release (v) Vibrato

Stave 1:

E|--9---5--7--
B|--9---5--7--
G|--9---6--8--
D|--11--7--9--
A|--11--7--9--
E|--9---5--7--

Stave 2:

E|--------------------------------------------
B|--------------------------------------------
G|--------------------------------------------
D|--------------------------------------------
A|-----------------------------6--7--6--------
E|--5--4--5--7--5--7--9--7--9-----------9--7--

Stave 3:

E|--------------------------------------------------------------------------------------
B|--------------------------------------------------------------------------------------
G|--------------------------------------------------------------------------------------
D|--------------------------------------------------------------------------------------
A|--------6--6--------6--6--6-----6--------6-----------------6--------6--6--------6--6--
E|--8--8--------8--8-----------8-----8--9-----9--6--9--8--9-----8--8--------8--8--------

Stave 4:

E|-------------------------------------------------------------
B|-------------------------------------------------------------
G|-------------------------------------------------------------
D|--------6--------8---------10------12------------6--------8--
A|-----6--------8--------10--------------12-----6--------8-----
E|--4--------6--------8----------10----------4--------6--------

Stave 5:

E|--8---4--6--
B|--8---4--6--
G|--8---5--7--
D|--10--6--8--
A|--10--6--8--
E|--8---4--6--

Stave 6:

E|-----------------------
B|-----------------------
G|-----------------------
D|-----------------------
A|-----------------------
E|--5--4--5--7--5--7--9--

http://www.guitartabcreator.com
Guitar Tab Creator is intended to store guitar tab created through the tool. It currently does not support in-line text editing. Any text you place in here will be lost. If you need to comment on your tab, please use the "Tab Notes" section located below.