Sound will begin in 5 seconds

Spontaneous Human Combustion

Chords
01234567891011121314151617181920212223
E
B
G
D
A
E
B
0 1 2 3 4 5 6 7 8 9 10 11 12 13 14 15 16 17 18 19 20 21 22 23
Song Science #1: How Pros Use 6 Chords to Write Hit Songs
(/) Slide Up  (\) Slide Down  (h) Hammer On  (p) Pull Off  (b) Bend (r) Release (v) Vibrato

Stave 1:

E|----------------------------------
B|----------------------------------
G|----------------------------------
D|-------------------------4-3-4-3--
A|-------5-------6-------5-4-3-4-3--
D|-0-3-6---0-4-7---0-3-6---4-3-4-3--

Stave 2:

E|---------------------------------------
B|---------------------------------------
G|---------------------------------------
D|---------------------------------------
A|-------5-------6-------5---------------
D|-0-3-6---0-4-7---0-3-6---3h4p3h4p3h4p3-

Stave 3:

E|-------------------------------------------------------------------
B|-------------------------------------------------------------------
G|-------------------------------------------------------------------
D|-------------------------0-4-3-------------------------------------
A|-------5-------6-------5-0-4-3-5-5-6-8-6-5-------3-3-4-6-4-3-------
D|-0-3-6---0-4-7---0-3-6---0-4-3-------------8-6-5-------------6-4-3-

Stave 4:

E|-------------------------------------------------------------------------
B|-------------------------------------------------------------------------
G|-------------------------------------------------------------------------
D|-------------------------------------------------------------------------
A|-5-5-5-------------5-5-5-------6-6-6-5-5-6-8-6-5-------3-3-4-6-4-3-------
D|-------6-6-6-0-0-0-------6-6-6-------------------8-6-5-------------6-4-3-

Stave 5:

E|-------------------------------------------------------------------
B|-------------------------------------------------------------------
G|---------------------------------5-5-6-8-6-5-----------------------
D|-----6-5-----3-2-----6-5-----3-2-------------8-6-5-5-6-8-6-5-------
A|-----6-5-----3-2-----6-5-----3-2-----------------------------8-6-5-
D|-0-0-6-5-0-0-3-2-0-0-6-5-0-0-3-2-----------------------------------

Stave 6:

E|---------------------------------------------------------------------
B|---------------------------------------------------------------------
G|---------------------------------------------------------------------
D|-----6-5-----3-2-----6-5-----3-2-------------------------------------
A|-----6-5-----3-2-----6-5-----3-2-5-5-6-8-6-5-------3-3-4-6-4-3-------
D|-0-0-6-5-0-0-3-2-0-0-6-5-0-0-3-2-------------8-6-5-------------6-4-3-

Stave 7:

E|-----------------------------------------------------------------------
B|-----------------------------------------------------------------------
G|-----------------------------7-----------------------------------------
D|-----------------5-5---------7-------------------6-------------------1-
A|---------5-5-6-6-----6-6-5-5-5-------------------6-------------------1-
D|-0-0-0-0-----------------------0-0-0-5-6-5-8-5-5-6-0-0-0-1-0-0-4-3-0-1-

Stave 8:

E|-----------------------------------------
B|-----------------------------------------
G|-----------------------------------------
D|-------------------6-------------------1-
A|-------------------6-------------------1-
D|-0-0-0-5-6-5-8-5-5-6-0-0-0-1-0-0-4-3-0-1-

Stave 9:

E|-------------------------------------------------------------------------
B|-------------------------------------------------------------------------
G|-------------------------------------------------------------------------
D|-------------------------------------------------------------------------
A|-5---------5---------6---------6-6-6-5---------5---------6---------6-5-3-
D|---0-3-6-6---0-3-6-6---0-3-6-6---------0-3-6-6---0-3-6-6---0-3-6-6-------

Stave 10:

E|--------------------------------------------------------------------------
B|--------------------------------------------------------------------------
G|--------------------------------------------------------------------------
D|---------------------------------4-4----------------------------------4-4-
A|-3---------4---------3----------------3---------4---------3---------------
D|---0-3-4-4---0-3-4-4---0-3-4-4-4--------0-3-4-4---0-3-4-4---0-3-4-4-4-----

http://www.guitartabcreator.com
Guitar Tab Creator is intended to store guitar tab created through the tool. It currently does not support in-line text editing. Any text you place in here will be lost. If you need to comment on your tab, please use the "Tab Notes" section located below.