Sound will begin in 5 seconds

Malignant Conception

01234567891011121314151617181920212223
E
B
G
D
A
E
B
0 1 2 3 4 5 6 7 8 9 10 11 12 13 14 15 16 17 18 19 20 21 22 23
Song Science #1: How Pros Use 6 Chords to Write Hit Songs
(/) Slide Up  (\) Slide Down  (h) Hammer On  (p) Pull Off  (b) Bend (r) Release (v) Vibrato

Stave 1:

G|------------------------------------------------------------------------------------------------------------
D|----------------------------------------------------------------------------12--11--10----------------------
A|--15--15--15--7---------10--10--10--6-------9-----9--10---------------------------------12--10--11--12--13--
D|-------------------7---------------------7-----7---------7--10--7--12--8------------------------------------

Stave 2:

G|-------------------------------------------------------------------------------
D|-------------------------------------------------------------------------------
A|--15--15--15--7---------10--10--10--6-------9-----9--10--7--10--7--9--7--6--7--
D|-------------------7---------------------7-----7-------------------------------

Stave 3:

G|------------------------------------------------------------------------------------------------------
D|--10------------------------------------------------------------------12--11--10----------------------
A|--------7---------10--10--10--6-------9-----9--10---------------------------------12--10--11--12--13--
D|-------------7---------------------7-----7---------7--10--7--12--8------------------------------------

Stave 4:

G|-----------------------------------------------------------------------------------------------------
D|-------------------------------------------------------------------------------7--10--7--9--7--6--7--
A|--15--15--15--7---------10--10--10--6-------9-----9--10--7--10--7--9--7--6--7------------------------
D|-------------------7---------------------7-----7-----------------------------------------------------

Stave 5:

G|----------------------------------------------------------------------------
D|----------------------------------------------------------------------------
A|---------------------------------------------10--9-----5-----4-----4-----4--
D|--0--0--0--0--13--0--0--15--13--0--10--9--0---------0-----0-----0-----0-----

Stave 6:

G|----------------------------------------------------------------------------
D|----------------------------------------------------------------------------
A|---------------------------------------------10--9-----5-----4-----7-----8--
D|--0--0--0--0--13--0--0--15--13--0--10--9--0---------0-----0-----0-----0-----

Stave 7:

G|-------------------------------
D|-------------------------------
A|--4--5--4--8--7--6----5--------
D|-------------------------6--5--

Stave 8:

G|----------------------------------------------------------------------
D|----------------------------------------------------------------------
A|-----------------------------------------------8--7--5----------------
D|--4--5--4--7--7--7--5--4--5--5--5--2--4--5--4-----------8--7--10--10--

Stave 9:

G|--------------------------------------------------------------------------------------------------------------
D|--------------------------------------------------------------------------------------------------------------
A|--------------------------------------------------------------------------------------------------------------
D|--4--5--4--7--7--7--5--4--5--5--5--2--3--3--3--3--3--3--4--4--4--3--3--3--4--4--4--5--5--5--6--6--6--5--5--5--

Stave 10:

G|-----------------------------------------------
D|-----------------------------------------------
A|--6--5----8--7--8--11--10--11--14--13--14--14--
D|-----------------------------------------------

http://www.guitartabcreator.com
Guitar Tab Creator is intended to store guitar tab created through the tool. It currently does not support in-line text editing. Any text you place in here will be lost. If you need to comment on your tab, please use the "Tab Notes" section located below.