12 Duane Allman Licks You Need To Know

Chords

01234567891011121314151617181920212223
E
B
G
D
A
E
B
0 1 2 3 4 5 6 7 8 9 10 11 12 13 14 15 16 17 18 19 20 21 22 23
(/) Slide Up  (\) Slide Down  (h) Hammer On  (p) Pull Off  (b) Bend (r) Release (v) Vibrato

1. Tri-Pull. E major Pentatonic. https://www.youtube.com/watch?v=cfeaRuxcAHI&list=PL4qoQVvmZ7IQ40InpKGVHzMenkoteP6k4&index=2&t=0s

E|--------------------12p9-----------------------12p9-----|--
B|--10p9-----12p9--------------10p9-----12p9--------------|--
G|--------9--------9--------9--------9--------9-----------|--
D|--------------------------------------------------------|--
A|--------------------------------------------------------|--
E|--------------------------------------------------------|--

2. Double Stop Bends: Key of A

E|-----15------------------------------15----------------------------------------------
B|---------15b17--15b17--17r15p13----------15b17--15b17--17r15p13--15--13--15--13------
G|---------------------------------14----------------------------------------------14--
D|-------------------------------------------------------------------------------------
A|-------------------------------------------------------------------------------------
E|-------------------------------------------------------------------------------------

3. Higher Power Chords - 10:12 - https://youtu.be/cfeaRuxcAHI?list=PL4qoQVvmZ7IQ40InpKGVHzMenkoteP6k4&t=613

E|------12---------12-----10------12--
B|--10---------10------8------10------
G|------------------------------------
D|------------------------------------
A|------------------------------------
E|------------------------------------

4. 635 Bend.   Key G, then E Major Pentantonic https://youtu.be/cfeaRuxcAHI?list=PL4qoQVvmZ7IQ40InpKGVHzMenkoteP6k4&t=838

E|--10b12--7--10-------------------------------------------
B|----------------12r10--8-----------15b17--13-------------
G|----------------------------------------------17r15--13--
D|---------------------------------------------------------
A|---------------------------------------------------------
E|---------------------------------------------------------

5. Bonanza Lick: https://youtu.be/cfeaRuxcAHI?list=PL4qoQVvmZ7IQ40InpKGVHzMenkoteP6k4&t=1208

E|-----------------------------------
B|--10p8--5--5--5--8--8--8--10b8-----
G|--------------------------------9--
D|-----------------------------------
A|-----------------------------------
E|-----------------------------------

							http://www.guitartabcreator.com
genre
Instruments
{"strings":[[[".",".",".",".",".",".",".",".",12,"p",9,".",".",".",".",".",".",".",".",".",12,"p",9,"_","|"],[10,"p",9,".",12,"p",9,".",".",".",".",".",10,"p",9,".",12,"p",9,".",".",".",".","_","|"],[".",".",".",9,".",".",".",9,".",".",".",9,".",".",".",9,".",".",".",9,".",".",".","_","|"],[".",".",".",".",".",".",".",".",".",".",".",".",".",".",".",".",".",".",".",".",".",".",".","_","|"],[".",".",".",".",".",".",".",".",".",".",".",".",".",".",".",".",".",".",".",".",".",".",".","_","|"],[".",".",".",".",".",".",".",".",".",".",".",".",".",".",".",".",".",".",".",".",".",".",".","_","|"]],[["_",15,".",".",".",".",".",".",".",".",".",".",".",".",15,".",".",".",".",".",".",".",".",".",".",".",".",".",".",".","."],["_",".",15,"b",17,15,"b",17,17,"r",15,"p",13,".",".",15,"b",17,15,"b",17,17,"r",15,"p",13,15,13,15,13,"."],["_",".",".",".",".",".",".",".",".",".",".",".",".",14,".",".",".",".",".",".",".",".",".",".",".",".",".",".",".",".",14],["_",".",".",".",".",".",".",".",".",".",".",".",".",".",".",".",".",".",".",".",".",".",".",".",".",".",".",".",".",".","."],["_",".",".",".",".",".",".",".",".",".",".",".",".",".",".",".",".",".",".",".",".",".",".",".",".",".",".",".",".",".","."],["_",".",".",".",".",".",".",".",".",".",".",".",".",".",".",".",".",".",".",".",".",".",".",".",".",".",".",".",".",".","."]],[[".",12,"_",".",12,".",10,".",12],[10,".","_",10,".",8,".",10,"."],[".",".","_",".",".",".",".",".","."],[".",".","_",".",".",".",".",".","."],[".",".","_",".",".",".",".",".","."],[".",".","_",".",".",".",".",".","."]],[[10,"b",12,7,10,".",".",".",".","_","_","_",".",".",".",".",".",".",".","."],[".",".",".",".",".",12,"r",10,8,"_","_","_",15,"b",17,13,".",".",".","."],[".",".",".",".",".",".",".",".",".","_","_","_",".",".",".",".",17,"r",15,13],[".",".",".",".",".",".",".",".",".","_","_","_",".",".",".",".",".",".",".","."],[".",".",".",".",".",".",".",".",".","_","_","_",".",".",".",".",".",".",".","."],[".",".",".",".",".",".",".",".",".","_","_","_",".",".",".",".",".",".",".","."]],[[".",".",".",".",".",".",".",".",".",".",".",".","."],[10,"p",8,5,5,5,8,8,8,10,"b",8,"."],[".",".",".",".",".",".",".",".",".",".",".",".",9],[".",".",".",".",".",".",".",".",".",".",".",".","."],[".",".",".",".",".",".",".",".",".",".",".",".","."],[".",".",".",".",".",".",".",".",".",".",".",".","."]]],"numberofstrings":6,"notes":["E","B","G","D","A","E","B"],"capo":0,"stringnotes":["E4","B3","G3","D3","A2","E2"],"comments":["1. Tri-Pull. E major Pentatonic. https://www.youtube.com/watch?v=cfeaRuxcAHI&list=PL4qoQVvmZ7IQ40InpKGVHzMenkoteP6k4&index=2&t=0s","2. Double Stop Bends: Key of A","3. Higher Power Chords - 10:12 - https://youtu.be/cfeaRuxcAHI?list=PL4qoQVvmZ7IQ40InpKGVHzMenkoteP6k4&t=613","4. 635 Bend. Key G, then E Major Pentantonic https://youtu.be/cfeaRuxcAHI?list=PL4qoQVvmZ7IQ40InpKGVHzMenkoteP6k4&t=838","5. Bonanza Lick: https://youtu.be/cfeaRuxcAHI?list=PL4qoQVvmZ7IQ40InpKGVHzMenkoteP6k4&t=1208"],"timing":[["W",null,"W","W","W",null,"W","W","W",null,"W","W","W",null,"W","W","W",null,"W","W","W",null,"W"],[null,"W","W",null,"W","W",null,"W","W",null,"W",null,"W","W","W","W",null,"W","W",null,"W","W",null,"W",null,"W","W","W","W","W","W"],["W","W",null,"W","W","W","W","W","W"],["W",null,"W","W","W","W",null,"W","W",null,null,null,"W",null,"W","W","W",null,"W","W"],["W","W","W","W","W","W","W","W","W","W",null,"W","W"]],"timingvisible":false,"tabcounter":13,"stave":4,"totalstaves":5,"instrument":"6guitar","selectedtuning":"6_standard","version":"13"}

Member for

1 month 2 weeks
Submitted by cord1138 on Sun, 2020-05-24 13:20