Sound will begin in 5 seconds

AHT heavy Demo

Chords
01234567891011121314151617181920212223
E
B
G
D
A
E
B
0 1 2 3 4 5 6 7 8 9 10 11 12 13 14 15 16 17 18 19 20 21 22 23
Song Science #1: How Pros Use 6 Chords to Write Hit Songs
(/) Slide Up  (\) Slide Down  (h) Hammer On  (p) Pull Off  (b) Bend (r) Release (v) Vibrato

Stave 1:

C |-----------0-----------------0--------
G |--------3-----3-----------3-----3-----
Eb|-----3-----------3-----2-----------2--
Bb|--------------------------------------
F |--1-----------------0-----------------
Bb|--------------------------------------

Stave 2:

C |-----------8-----------------8----------------------------------------------------
G |-----6-----------6-----6-----------6------------10------10------------10------10--
Eb|--7-----7-----7-----7-----7-----7--------10---------10---------10---------10------
Bb|--------------------------------------8------8--------------8------8--------------
F |----------------------------------------------------------------------------------
Bb|----------------------------------------------------------------------------------

Stave 3:

C |-----------8-----------------8--------------------------------------------
G |-----6-----------6-----6-----------6-----------6-----------------6--------
Eb|--7-----7-----7-----7-----7-----7--------9--------9--------9--------9-----
Bb|--------------------------------------7-----7--------7--7-----7--------7--
F |--------------------------------------------------------------------------
Bb|--------------------------------------------------------------------------

Stave 4:

C |------------------------------------------------------------------------------------------------
G |------------------------------------------------------------------------------------------------
Eb|------------------------------------------------------------------------------------------------
Bb|------------------------------------------------------------------------------------------------
F |-----------------------7-----10-----7--8--7-----5-----8-----5--6--5-----------------------------
Bb|--3p0--1p0--0--0--5/8-----8------8-----------5-----5-----5-----------3--3--3--3/11--11--11--11--

Stave 5:

C |------------------------------------------------
G |--------------10--------8-----------10--11--10--
Eb|--------------10--------9-----------10--12--10--
Bb|--0--0--0--0--0---0--0--0--0--0--0--0---0---0---
F |--0--0--0--0------0--0-----0--0--0--------------
Bb|--0--0--0--0------0--0-----0--0--0--------------

Stave 6:

C |------------------------------------------------
G |--------------10--------8--8--8--8--5--5--5--5--
Eb|--------------10--------9--9--9--9--6--6--6--6--
Bb|--0--0--0--0--0---0--0--0--0--0--0--0--0--0--0--
F |--0--0--0--0------0--0--------------------------
Bb|--0--0--0--0------0--0--------------------------

Stave 7:

C |---------------------------------------------------------------------------------------------
G |---------------------------------------------------------------------------------------------
Eb|---------------------------------------------------------------------------------------------
Bb|--0--0--0--0--8--8--8--7--7--7--7--7--8/10\8--5--5--5--5--8--8--8--7--7--7--7--7--3\1--1--1--
F |---------------------------------------------------------------------------------------------
Bb|---------------------------------------------------------------------------------------------

http://www.guitartabcreator.com
Guitar Tab Creator is intended to store guitar tab created through the tool. It currently does not support in-line text editing. Any text you place in here will be lost. If you need to comment on your tab, please use the "Tab Notes" section located below.