Sound will begin in 5 seconds

Hands Off

Chords
01234567891011121314151617181920212223
E
B
G
D
A
E
B
0 1 2 3 4 5 6 7 8 9 10 11 12 13 14 15 16 17 18 19 20 21 22 23
Song Science #1: How Pros Use 6 Chords to Write Hit Songs
(/) Slide Up  (\) Slide Down  (h) Hammer On  (p) Pull Off  (b) Bend (r) Release (v) Vibrato

Capo Fret 2

Stave 1:

F |----------------------------------------
Bb|----------7--------5--------0--------0--
G |----------7--------5--------0--------0--
D |--10--10--7--7--7--5--5--5--0--5--5--0--
Bb|--7---7---7--4--4--5--2--2--0--2--2--0--
Eb|----------------------------------------

Stave 2:

F |--------------------------------------------------
Bb|--------------------------------------------------
G |--------------------------------------------------
D |--0--0--0-----------0--0--------------------------
Bb|--0--0--0--0--0--0--0--0--0--0--0--0--0--0--0--0--
Eb|-----------0--0--0--------0--0--0--0--0--0--0--0--

Stave 3:

F |-----------------------------------------------
Bb|-----------5--5--7--5--5--5--7--5--5--5--7--5--
G |--7--7--7--5--5--7--5--5--5--7--5--5--5--7--5--
D |--7--7--7--5--5--5--5--5--5--5--5--5--5--5--5--
Bb|--7--7--7--5--5--5--5--5--5--5--5--5--5--5--5--
Eb|-----------------------------------------------

Stave 4:

F |------------------------------------------
Bb|-----------0------------------------------
G |--7--7--7--0------------------------------
D |--7--7--7--0--10--------7--------5-----0--
Bb|--7--7--7--0------7--0-----4--0-----2--0--
Eb|------------------------------------------

Stave 5:

F |--------------------------------------------------
Bb|--------------------------------------------------
G |--------------------------------------------------
D |--0--0--0-----------0--0--------------------------
Bb|--0--0--0--0--0--0--0--0--0--0--0--0--0--0--0--0--
Eb|-----------0--0--0--------0--0--0--0--0--0--0--0--

http://www.guitartabcreator.com
Guitar Tab Creator is intended to store guitar tab created through the tool. It currently does not support in-line text editing. Any text you place in here will be lost. If you need to comment on your tab, please use the "Tab Notes" section located below.