Its beginning to look a lot like Christmas

Chords

01234567891011121314151617181920212223
E
B
G
D
A
E
B
0 1 2 3 4 5 6 7 8 9 10 11 12 13 14 15 16 17 18 19 20 21 22 23
(/) Slide Up  (\) Slide Down  (h) Hammer On  (p) Pull Off  (b) Bend (r) Release (v) Vibrato

Stave 1:

G|--------------|--------------|--------------|--------------|--------------|--------------|--------------|--------------
D|--------------|--------------|--------------|--------------|--------------|--------------|--------------|--------------
A|-----------3--|--------------|--------------|--------3-----|--3-----5-----|--5-----------|--5-----------|--5-----5-----
E|--3-----------|-----3--------|--------------|-----3-----0--|--------------|--------3-----|--------5-----|--------------

Stave 2:

G|--------------|--------------|--------------|--------------|--------------|--------------|--------------|--------------
D|--------------|--------------|--------------|--------------|--------------|--------------|--------------|--------------
A|-----------3--|--------------|--------------|--------3-----|--------------|--------------|--------------|--------5-----
E|--3-----------|-----3--------|--------------|-----3-----0--|--------------|--3-----5-----|--3--------0--|-----5-----3--

Stave 3:

G|--------------|--------------|--------------|--------------|--------------|--------------
D|--------------|--------------|--------------|--------------|--------------|--------------
A|-----2--------|--------------|--------------|-----5-----5--|--5-----5-----|--5-----5-----
E|--------------|--0-----------|--5-----------|--------------|--------------|--------------

Stave 4:

G|--------------|--------------|--------------|--------------|--------------|--------------|--------------|--------------
D|--------------|--------------|--------------|--------------|--------------|--------------|--------------|--------------
A|-----------3--|--------------|--------------|--------3-----|--3-----5-----|--5-----------|--5-----------|--5-----5-----
E|--3-----------|-----3--------|--------------|-----3-----0--|--------------|--------3-----|--------5-----|--------------

Stave 5:

G|--------------|--------------|--------------|--------------|--------------|--------------|--------------|--------------
D|--------------|--------------|--------------|--------------|--------------|--------------|--------------|--------------
A|-----------3--|--------------|--------------|--------3-----|--------------|--------------|--------------|--------5-----
E|--3-----------|-----3--------|--------------|-----3-----0--|--------------|--3-----5-----|--3--------0--|-----5-----3--

Stave 6:

G|--------------|--------------|--------------|--------------|--------------|--------------
D|--------------|--------------|--------------|--------------|--------------|--------------
A|-----2--------|--------------|--------------|-----5-----5--|--5-----5-----|--5-----5-----
E|--------------|--0-----------|--5-----------|--------------|--------------|--------------

Stave 7:

G|--------------
D|--------------
A|--5--5--5--5--
E|--------------

Stave 8:

G|--------------|--------------|--------------|--------------|--------------|--------------|--------------|--------------
D|--------------|--------------|--------------|--------------|--------------|--------------|--------------|--------------
A|-----------3--|--------------|--------------|--------3-----|--------------|--------------|--------------|--------5-----
E|--3-----------|-----3--------|--------------|-----3-----0--|--------------|--3-----5-----|--3--------0--|-----5-----3--

							http://www.guitartabcreator.com
Instruments
{"strings":[[[".","_","_",".","|","_",".","_","_","|","_","_","_","_","|","_",".",".",".","|",".","_",".","_","|",".","_",".","_","|",".","_",".","_","|",".","_",".","_"],[".","_","_",".","|","_",".","_","_","|","_","_","_","_","|","_",".",".",".","|",".","_",".","_","|",".","_",".","_","|",".","_",".","_","|",".","_",".","_"],[".","_","_",3,"|","_",".","_","_","|","_","_","_","_","|","_",".",3,".","|",3,"_",5,"_","|",5,"_",".","_","|",5,"_",".","_","|",5,"_",5,"_"],[3,"_","_",".","|","_",3,"_","_","|","_","_","_","_","|","_",3,".",0,"|",".","_",".","_","|",".","_",3,"_","|",".","_",5,"_","|",".","_",".","_"]],[[".","_","_",".","|","_",".","_","_","|","_","_","_","_","|","_",".",".",".","|","_","_","_","_","|",".","_",".","_","|",".","_","_",".","|","_",".",".","."],[".","_","_",".","|","_",".","_","_","|","_","_","_","_","|","_",".",".",".","|","_","_","_","_","|",".","_",".","_","|",".","_","_",".","|","_",".",".","."],[".","_","_",3,"|","_",".","_","_","|","_","_","_","_","|","_",".",3,".","|","_","_","_","_","|",".","_",".","_","|",".","_","_",".","|","_",".",5,"."],[3,"_","_",".","|","_",3,"_","_","|","_","_","_","_","|","_",3,".",0,"|","_","_","_","_","|",3,"_",5,"_","|",3,"_","_",0,"|","_",5,".",3]],[["_",".","_","_","|",".","_","_","_","|",".","_","_","_","|","_",".","_",".","|",".","_",".","_","|",".","_",".","_"],["_",".","_","_","|",".","_","_","_","|",".","_","_","_","|","_",".","_",".","|",".","_",".","_","|",".","_",".","_"],["_",2,"_","_","|",".","_","_","_","|",".","_","_","_","|","_",5,"_",5,"|",5,"_",5,"_","|",5,"_",5,"_"],["_",".","_","_","|",0,"_","_","_","|",5,"_","_","_","|","_",".","_",".","|",".","_",".","_","|",".","_",".","_"]],[[".","_","_",".","|","_",".","_","_","|","_","_","_","_","|","_",".",".",".","|",".","_",".","_","|",".","_",".","_","|",".","_",".","_","|",".","_",".","_"],[".","_","_",".","|","_",".","_","_","|","_","_","_","_","|","_",".",".",".","|",".","_",".","_","|",".","_",".","_","|",".","_",".","_","|",".","_",".","_"],[".","_","_",3,"|","_",".","_","_","|","_","_","_","_","|","_",".",3,".","|",3,"_",5,"_","|",5,"_",".","_","|",5,"_",".","_","|",5,"_",5,"_"],[3,"_","_",".","|","_",3,"_","_","|","_","_","_","_","|","_",3,".",0,"|",".","_",".","_","|",".","_",3,"_","|",".","_",5,"_","|",".","_",".","_"]],[[".","_","_",".","|","_",".","_","_","|","_","_","_","_","|","_",".",".",".","|","_","_","_","_","|",".","_",".","_","|",".","_","_",".","|","_",".",".","."],[".","_","_",".","|","_",".","_","_","|","_","_","_","_","|","_",".",".",".","|","_","_","_","_","|",".","_",".","_","|",".","_","_",".","|","_",".",".","."],[".","_","_",3,"|","_",".","_","_","|","_","_","_","_","|","_",".",3,".","|","_","_","_","_","|",".","_",".","_","|",".","_","_",".","|","_",".",5,"."],[3,"_","_",".","|","_",3,"_","_","|","_","_","_","_","|","_",3,".",0,"|","_","_","_","_","|",3,"_",5,"_","|",3,"_","_",0,"|","_",5,".",3]],[["_",".","_","_","|",".","_","_","_","|",".","_","_","_","|","_",".","_",".","|",".","_",".","_","|",".","_",".","_"],["_",".","_","_","|",".","_","_","_","|",".","_","_","_","|","_",".","_",".","|",".","_",".","_","|",".","_",".","_"],["_",2,"_","_","|",".","_","_","_","|",".","_","_","_","|","_",5,"_",5,"|",5,"_",5,"_","|",5,"_",5,"_"],["_",".","_","_","|",0,"_","_","_","|",5,"_","_","_","|","_",".","_",".","|",".","_",".","_","|",".","_",".","_"]],[[".",".",".","."],[".",".",".","."],[5,5,5,5],[".",".",".","."]],[[".","_","_",".","|","_",".","_","_","|","_","_","_","_","|","_",".",".",".","|","_","_","_","_","|",".","_",".","_","|",".","_","_",".","|","_",".",".","."],[".","_","_",".","|","_",".","_","_","|","_","_","_","_","|","_",".",".",".","|","_","_","_","_","|",".","_",".","_","|",".","_","_",".","|","_",".",".","."],[".","_","_",3,"|","_",".","_","_","|","_","_","_","_","|","_",".",3,".","|","_","_","_","_","|",".","_",".","_","|",".","_","_",".","|","_",".",5,"."],[3,"_","_",".","|","_",3,"_","_","|","_","_","_","_","|","_",3,".",0,"|","_","_","_","_","|",3,"_",5,"_","|",3,"_","_",0,"|","_",5,".",3]]],"numberofstrings":4,"notes":["G","D","A","E"],"capo":0,"stringnotes":["G2","D2","A1","E1"],"comments":["Stave 1:","Stave 2:","Stave 3:","Stave 4:","Stave 5:","Stave 6:","Stave 7:","Stave 8:"],"timing":[["W",null,null,"W",null,null,"W",null,null,null,null,null,"W","W","W","W","W","W","W",null,"W",null,"W",null,null,"W",null,"W",null,null,"W",null,"W",null,null,"W",null,"W",null,null,"W",null,null,"W",null,null,"W"],["W",null,null,"W",null,null,"W",null,null,null,null,null,null,null,null,null,"W","W","W",null,null,null,null,null,null,"W",null,"W",null,null,"W",null,"W","W",null,null,"W","W","W"],[null,"W",null,null,null,"W",null,null,null,"W","W",null,null,null,null,"W","W",null,"W",null,"W",null,"W",null,null,"W",null,"W"],["W",null,null,"W",null,null,"W",null,null,null,null,null,null,null,null,null,"W","W","W",null,"W",null,"W",null,null,"W",null,"W",null,null,"W",null,"W",null,null,"W",null,"W"],["W",null,null,"W",null,null,"W",null,null,null,null,null,null,null,null,null,"W","W","W",null,null,null,null,null,null,"W",null,"W",null,null,"W",null,null,"W",null,null,"W","W","W"],[null,"W",null,null,null,"W",null,null,null,null,"W",null,null,null,null,null,"W",null,"W",null,"W",null,"W",null,null,"W",null,"W"],["W","W","W","W"],["W",null,null,"W",null,null,"W",null,null,null,null,null,null,null,null,null,"W","W","W",null,null,null,null,null,null,"W",null,"W",null,null,"W",null,null,"W",null,"W","W","W","W"]],"timingvisible":false,"tabcounter":39,"stave":7,"totalstaves":8,"instrument":"4bass","selectedtuning":"4bass","version":"13"}

Member for

2 months
About Me
learning bass
Submitted by Contentpig on Tue, 2020-11-17 04:37