Sound will begin in 5 seconds

Back in USSR

Chords
01234567891011121314151617181920212223
E
B
G
D
A
E
B
0 1 2 3 4 5 6 7 8 9 10 11 12 13 14 15 16 17 18 19 20 21 22 23
Song Science #1: How Pros Use 6 Chords to Write Hit Songs
(/) Slide Up  (\) Slide Down  (h) Hammer On  (p) Pull Off  (b) Bend (r) Release (v) Vibrato

Stave 1:

E|--5-----------8-------------10--------------
B|-----8--7--------11--10---------13--12------
G|-----------5-------------8--------------10--
D|--------------------------------------------
A|--------------------------------------------
E|--------------------------------------------

Stave 2:

E|--3--
B|--3--
G|--5--
D|--3--
A|--5--
E|--3--

Stave 3:

E|--------------------
B|--------------------
G|--------------------
D|-----5--7--7--7--7--
A|--------------------
E|--------------------

Stave 4:

E|---------------------------------------------
B|---------------------------------------------
G|---------------------------------------------
D|--7--5--4-----10--10--8--7-----12--10--9-----
A|-----------3----------------6-------------8--
E|---------------------------------------------

Stave 5:

E|--13b13b13b13b
B|--------------
G|--------------
D|--------------
A|--------------
E|--------------

http://www.guitartabcreator.com
Guitar Tab Creator is intended to store guitar tab created through the tool. It currently does not support in-line text editing. Any text you place in here will be lost. If you need to comment on your tab, please use the "Tab Notes" section located below.