Sound will begin in 5 seconds

110 (Dark Blues, Deep)

Chords
01234567891011121314151617181920212223
E
B
G
D
A
E
B
0 1 2 3 4 5 6 7 8 9 10 11 12 13 14 15 16 17 18 19 20 21 22 23
Song Science #1: How Pros Use 6 Chords to Write Hit Songs
(/) Slide Up  (\) Slide Down  (h) Hammer On  (p) Pull Off  (b) Bend (r) Release (v) Vibrato

Stave 1:

E|-----------------------------------------------------------------
B|-----------------------------------------------------------------
G|-----------------------------------------------------------------
D|-----------2p0-----------------2h3--2--2p0-----------------------
A|--5--4--2-------2p0-------------------------2p0------------5--4--
E|--3--2--0------------2h3--2p0--------------------2h3--2p0--3--2--

Stave 2:

E|------------------------------------------
B|------------------------------------------
G|------------------------------------------
D|--9--5--7--7--2p0-----------------2h3--2--
A|--7--3--5--5-------2p0--------------------
E|------------------------2h3--2p0----------

Stave 3:

E|----------------------------------------------------------------------------------------------------------
B|----------------------------------------------------------------------------------------------------------
G|-----------------------------------7--6--5--4-------------------------------------------7--6--5--7--6--5--
D|-----------------------9--7--9--9--------------2----------------------------9--7--9--9--------------------
A|--5--4--2--7--5--7--7--7--5--7--7--5--4--3--2--0--5--4--2-------7--5--7--7--7--5--7--7--5--4--3-----------
E|--3--2--0--5--3--5--5-----------------------------3--2--0--3b0--5--3--5--5--------------------------------

http://www.guitartabcreator.com
Guitar Tab Creator is intended to store guitar tab created through the tool. It currently does not support in-line text editing. Any text you place in here will be lost. If you need to comment on your tab, please use the "Tab Notes" section located below.